eToCache5 = ""; ?> Everytime We Touch by Maggie Reilly - guitar chords, guitar tabs and lyrics - chordie

Everytime We Touch

Maggie Reilly

e |-----------------------------------------------------------------------|

h |-----------------------------------------------------------------10-12-|
G |-----------------------------------------------------------------------|
D |-7-6-4-2-4—4-2-----2-4-6-7-9-----7-6-4-2-2-4-6-9-12-12-12-14-----------|
A |---------------2-4-----------7-------------------------------12--------|
E |-----------------------------------------------------------------------|
e |--------------------------|
h |14-14-14-17-14-12-10-12-9-|
G |--------------------------|
D |--------------------------|
A |--------------------------|
E |--------------------------|

 F#mEBm
 A shooting star fell down to earth
 F#mED
 Lightning cracked the sky
 F#mEBm
 Something weird is happening
 F#mED
 Something I can't deny

 BmG
 A strange kind of magic
 A
 Running through my brain
 BmG
 Feel I'm in heaven
 AC#
 Or going insane  

 DEF#m
Cause everytime we touch I get this feeling
 DEF#m
and everytime we kiss I swear I could fly
 DA
Can't you feel my heart beat fast
 EF#m
want this to last
 DE
 Need you by my side
 DEF#m
Cause everytime we touch I feel the static
 DEF#m
and everytime we kiss I reach for the sky
 DA
Can't you hear my heart beat so
 EF#m
can't let you go
 AE
 Want you in my life

e |---------------------2-4-5>12-9---------------|
h |--------------------------------12-10-10-12-9-|
G |----------------------------------------------|
D |-7-6-4-2-4—4-2-----2--------------------------|
A |---------------2-4----------------------------|
E |----------------------------------------------|

 F#mEBm
 The wind was like a hurricane
 F#mED
 Storm clouds filled the sky
 F#mEBm
 I heard a crash of thunder
 F#mED
 The earth shook in reply

 BmG
 A strange kind of magic
 A
 Running through my brain
 BmG
 Feel like I'm in heaven
 AC#m
 Or going insane  

 DEF#m
Cause everytime we touch I get this feeling
 DEF#m
and everytime we kiss I swear I could fly
 DA
Can't you feel my heart beat fast
 EF#m
want this to last
 DE
 Need you by my side

 DEF#m
Cause everytime we touch I feel the static
 DEF#m
and everytime we kiss I reach for the sky
 DA
Can't you hear my heart beat so
 EF#m
can't let you go
 AE
 Want you in my life

e |-----------------------------------------------------------------------|
h |--------------------------------------------------------------10-12-14-|
G |-----------------------------------------------------------------------|
D |-7-6-4-2-4—4-2-----2-4-6-7-9-----7-6-4-2-2-4-6-9-12—14-12--------------|
A |---------------2-4-----------7----------------------------12-----------|
E |-----------------------------------------------------------------------|
e |------------------|
h |14-14-17-14-12-14-|
G |------------------|
D |------------------|
A |------------------|
E |------------------|

 DEF#m
Cause everytime we touch I get this feeling
 DEF#m
and everytime we kiss I swear I could fly
 DA
Can't you feel my heart beat fast
 EF#m
want this to last
 DE
 Need you by my side
 DEF#m
Cause everytime we touch I feel the static
 DEF#m
and everytime we kiss I reach for the sky
 DA
Can't you hear my heart beat so
 EF#m
can't let you go
 AE
 Want you in my life

by Iloveblondgirls - you know me?

END

+--------------------------------------------------------------------------+

| This file is the author's own work and represents their interpretation |
| of the song. You may only use this file for private study, scholarship, |
| or research. |
+--------------------------------------------------------------------------+


Ultimate-Guitar.Com © 2005


A Bm C# C#m D E F#m G
variations - click chord images
Transpose chords:
Tuning:
Cool service:
View: Size:
A  A  A
Rating:
Layout:
  • Currently 0/5 Stars.
  • 1
  • 2
  • 3
  • 4
  • 5
 
Accuracy:
  • Currently 4/5 Stars.
  • 1
  • 2
  • 3
  • 4
  • 5
 
click stars to rate
Chordie recommends:
Get acoustic guitar lessons and electric guitar lessons at JamPlay.com
Songbook:
Login to add this song to your songbook
Support the artist
Preview/buy this song
MSN Music
Why this non-profit ad?

 
login to add comments/video/corrections