""; ?> Corcovado by Antonio Carlos Jobim - guitar chords, guitar tabs and lyrics - chordie
| Am6 | Am6- Ab° Abm6 |
| Gm7 Gm7/4 Gb7/4/5+ Gb7/5- | F° F7M |
| Fm7 Bb7/9- Bb7/9(+)| Em7 A7/9- |
| Dm7 G13 G7 | Em7 A7 |
| Am6- F7M/G G7 |
INTRO (Chords)

Am6 Abm6/5+ Abm6 Gm7 C13 F7M9 F7M Fm6 Em7 Am7 Am6- Ab°
E||----------------------|------------------------|----------------------||
B||--5----5----4----3----|--10----8----10----8----|--8----5----5----3----||
G||--5----4----4----3----|--9-----9----9-----7----|--7----5----5----4----||
D||--4----3----3----3----|--8-----7----7-----6----|--9----5----3----3----||
A||----------------------|--------8----8-----8----|--7-------------------||
E||--5----4----4----3----|--8---------------------|-------5----5----4----||


VERSES (Chords)

 Gm7/4Gm6C7F7MF6F7MF7/4/5+Fm7Bb13Bb7Em7/5-A9-/5+
E||----------------------|------------1---------|-----------------6----|
B||--1----3----1----1----|--1----1----2----1----|--8----6----8----6----|
G||--3----3----3----2----|--2----2----2----1----|--7----7----7----6----|
D||--3----2----2----2----|--0----2----1----1----|--6----6----8----5----|
A||------------3---------|------------1---------|------------7---------|
E||--3----3---------1----|--1----1----1----1----|--6----6---------5----|


Am6- Ab° E9-/5+
------------1----||
--5----3----1----||
--5----4----1----||
--3----3---------||
-----------------||
--5----4----0----||
 Gb7/4/5+ Gb7/5- F°  F7M     Fm7  Bb9- Bb9  Bb9+    G13  G7   F7M/G G9-/5+
E||--2-------------------|----------------------|--3---------5----4----||
B||--3----1----0----1----|--1----0----1----2----|--5----3----5----4----||
G||--3----3----1----2----|--1----1----1----1----|--5----4----5----4----||
D||--2----2----0----2----|--1----0---------0----|--3----3----3----3----||
A||--2-------------------|-------1----1----1----|--3-------------------||
E||--2----2----1----1----|--1-------------------|--3----3----3----3----||


Outro = Intro

END

+--------------------------------------------------------------------------+

| This file is the author's own work and represents their interpretation |
| of the song. You may only use this file for private study, scholarship, |
| or research. |
+--------------------------------------------------------------------------+


Ultimate-Guitar.Com © 2005









Bb13 Bb7 C7 F6 Fm7 Gm6 Gm7/4
variations - click chord images
Transpose chords:
Tuning:
Cool service:
View: Size:
A  A  A
Rating:
Layout:
  • Currently 0/5 Stars.
  • 1
  • 2
  • 3
  • 4
  • 5
 
Accuracy:
  • Currently 0/5 Stars.
  • 1
  • 2
  • 3
  • 4
  • 5
 
click stars to rate
Chordie recommends:
Learn to play songs at Jamplay.com with video guitar lessons
Songbook:
Login to add this song to your songbook
Support the artist
Preview/buy this song
MSN Music
Why this non-profit ad?

 
login to add comments/video/corrections