CHORD INTRO
| Am6- Abm6/5+ Ab° | Gm7/4 Gb7/5- |
| Am6- Abm6/5+ Ab° | Cm7/G Gb° |
| D7/F# Gbm6/5+ | Gm7 A9- |
| Dm7 Em9 E9+ | A7M Ab7/5+ |
| G13 Gb7/5- |
VERSES
| F7M | / | G7/5- | / |
| Gm7 | C9 | Am7/5- | D9- |
| Gm7 | A9- | D7M9 | D9- |
| G7 | G7 | Gb7M | Gb7/5- |
| F7M | / | G7/5- | / |
| Gm7 | C9 | Am7/5- | D9- |
| Gm7 | A11/5+ | Dm7(/4) | E7 |
| A7M | A11/5+ | G13 | Gb7 |
| A7M | Bb° | Hm7 | E6/9- |
| A7M | Am9 | Bm11(/5-) | Bb7/5- |
| C7/5+| Db° | Dm7 | G13 |
| Gm7 | Ebm6 | Gm7 | C9- |
LAST VERSE & OUTRO
| F7M | / | G7/5- | / |
| Gm7 | C9 | Am7/5- | D9- |
| Bb7M | Bbm6 | Am7 | Ab° |
| G7 | / | Gb7/5+ | / |
| G7 | Gm7 C7 | F C9- F6 | F7M11+ |
CHORD INTRO

Am6- Abm6/5+ Ab° Gm7/4 Gb7/5- Cm7/G Gb°
E||---------------------|--------------------|--------------------|
B||--5--------5----3----|--1--------1--------|--1--------1--------|
G||--5--------4----4----|--3--------3--------|--3--------2--------|
D||--3--------3----3----|--3--------2--------|--1--------1--------|
A||---------------------|--------------------|--------------------|
E||--5--------4----4----|--3--------2--------|--3--------2--------|


 DGbm6/5+Gm7A9-Dm7Em9E9+
--------------------|-----------6--------|---------------------|
--3--------3--------|--3--------5--------|--6--------7----8----|
--2--------2--------|--3--------6--------|--5--------7----7----|
-----------1--------|--3--------5--------|--7--------5----6----|
--------------------|--------------------|--5--------7----7----|
--2--------2--------|--3--------5--------|---------------------|


 A7MAb7/5+G13Gb7/5-
-----------4--------|--------------------||
--5--------5--------|--5--------1--------||
--6--------5--------|--4--------3--------||
--6--------4--------|--3--------2--------||
--------------------|--------------------||
--5--------4--------|--3--------2--------||


VERSES

     F7M      G7/5-       Gm7      C9          Am7/5-   D9-
E||--------------------|--------------------|--------------------|
B||--1--------2--------|--3--------3--------|--4--------4--------|
G||--2--------4--------|--3--------3--------|--5--------5--------|
D||--2--------3--------|--3--------2--------|--5--------4--------|
A||--------------------|-----------3--------|-----------5--------|
E||--1--------3--------|--3-----------------|--5-----------------|


 A9-D7M9G7Gb7MGb7/5-A7/5+
--6-----------------|--------------------|-----------5--------|
--5--------5--------|--3--------2--------|--1--------6--------|
--6--------6--------|--4--------3--------|--3--------6--------|
--5--------4--------|--3--------3--------|--2--------5--------|
-----------5--------|--------------------|--------------------|
--5-----------------|--3--------2--------|--2--------5--------|


 D7/4E7A7MA7/5+G13Gb7
--------------------|-----------5--------|--------------------|
--8--------9--------|--5--------6--------|--5--------2--------|
--5--------7--------|--6--------6--------|--4--------3--------|
--7--------9--------|--6--------5--------|--3--------2--------|
--5--------7--------|--------------------|--------------------|
--------------------|--5--------5--------|--3--------2--------|


A7M Bb° Bm7 E6/9- A7M Am9
--------------------|--------------------|-----------0--------|
--2--------2--------|--3--------2--------|--2--------0--------|
--1--------0--------|--2--------1--------|--1--------5--------|
--2--------2--------|--0--------3--------|--2--------5--------|
--0--------1--------|--2-----------------|--0--------0--------|
--------------------|-----------0--------|--------------------|


Bm11 Bm7/5- Bb7/5- C7M13 Db° Dm7
--------------------|---------------------|--------------------|
--5--------6--------|--5--------10--------|--8--------6--------|
--7--------7--------|--7--------9---------|--9--------5--------|
--7--------7--------|--6--------9---------|--8--------7--------|
--------------------|-----------8---------|-----------5--------|
--7--------7--------|--6--------8---------|--9-----------------|


 G13Gm7Ebm6/9Gm7C9-
--------------------|--------------------|-------------------||
--5--------3--------|--6--------3--------|--2----------------||
--4--------3--------|--5--------3--------|--3----------------||
--3--------3--------|--4--------3--------|--2----------------||
--------------------|--6-----------------|--3----------------||
--3--------3--------|-----------3--------|-------------------||


LAST VERSE & OUTRO

     F7M      G7/5-       Gm7      C7          Am7/5-   D9-
E||--------------------|--------------------|--------------------|
B||--1--------2--------|--3--------5--------|--4--------4--------|
G||--2--------4--------|--3--------3--------|--5--------5--------|
D||--2--------3--------|--3--------5--------|--5--------4--------|
A||--------------------|-----------3--------|-----------5--------|
E||--1--------3--------|--3-----------------|--5-----------------|


Bb7M Bbm6 Am7 Ab° G7 Gb7M
--------------------|--------------------|--------------------|
--6--------6--------|--5--------3--------|--3--------2--------|
--7--------6--------|--5--------4--------|--4--------3--------|
--7--------5--------|--5--------3--------|--3--------3--------|
--------------------|--------------------|--------------------|
--6--------6--------|--5--------4--------|--3--------2--------|


 G7Gm7C7F7MC9-F6
--------------------|--------------------|--------------------|
--3--------3--------|--5--------1--------|--2--------1--------|
--4--------3--------|--3--------2--------|--3--------2--------|
--3--------3--------|--5--------2--------|--2--------0--------|
--------------------|--3-----------------|--3-----------------|
--3--------3--------|-----------1--------|-----------1--------|


 F7M/11/5-
--0----------------||
--0----------------||
--3----------------||
--3----------------||
--0----------------||
--1----------------||


END

+--------------------------------------------------------------------------+

| This file is the author's own work and represents their interpretation |
| of the song. You may only use this file for private study, scholarship, |
| or research. |
+--------------------------------------------------------------------------+


Ultimate-Guitar.Com © 2005


A7/5+ A9- Ab7/5+ C7 C9- D D7/4 Dm7 E7 Ebm6/9 Em9 F6 G13 G7 Gb7 Gm7
variations - click chord images
Transpose chords:
Tuning:
Cool service:
View: Size:
A  A  A
Rating:
Layout:
  • Currently 0/5 Stars.
  • 1
  • 2
  • 3
  • 4
  • 5
 
Accuracy:
  • Currently 0/5 Stars.
  • 1
  • 2
  • 3
  • 4
  • 5
 
click stars to rate
Chordie recommends:
Get acoustic guitar lessons and electric guitar lessons at JamPlay.com
Songbook:
Login to add this song to your songbook
Support the artist
Preview/buy this song
MSN Music
Why this non-profit ad?

 
login to add comments/video/corrections