Souvenir

Paul McCartney

-------------------------------------------------------

-------------------------------------------------------

 F#C#
e|------------ ------------|------------ ------------|
B|--------2------------2---|--------2------------2---|
G|----3------------3-------|----1------------1-------|
D|4------------4-----------|3------------3-----------|
A|-------------------------|-------------------------|
E|-------------------------|-------------------------|

When fed up shedding
you're too many
tears
e|6----------- ------------|4----------- ------------|
B|7------------------------|6------------------------|
G|6------------------------|6------------------------|
D|8------------------------|6------------------------|
A|-------------------------|-------------------------|
E|-------------------------|-------------------------|


 F7Bbm
e|------------ ------------|------------ ------------|
B|--------4------------4---|--------2------------2---|
G|----2------------2-------|----3------------3-------|
D|3------------3-----------|3------------3-----------|
A|-------------------------|-------------------------|
E|-------------------------|-------------------------|

And memory like just many souvenirs
your seems so
e|5----------- 5-----------|6----------- ------------|
B|6------------6-----------|6------------------------|
G|5------------5-----------|6------------------------|
D|7------------7-----------|8------------------------|
A|-------------------------|-------------------------|
E|-------------------------|-------------------------|


 C#mAb
e|------------ ------------|------------ ------------|
B|--------2------------2---|-------------------------|
G|----1------------1-------|--------5------------5---|
D|2------------2-----------|----6------------6-------|
A|-------------------------|6------------6-----------|
E|-------------------------|-------------------------|

I will come to to
you

e|4----------- ------------|4----------- ------------|
B|5------------------------|4------------------------|
G|6------------------------|5------------------------|
D|6------------------------|6------------------------|
A|-------------------------|6------------------------|
E|-------------------------|-------------------------|


 EbEb7
e|------------ ------------|------------ ------------|
B|-------------------------|-------------------------|
G|--------3------------3---|--------3------------3---|
D|----5------------5-------|----5------------5-------|
A|6------------6-----------|4------------4-----------|
E|-------------------------|-------------------------|

ease pain
the
e|3----------- ------------|3----------- ------------|
B|4------------------------|2------------------------|
G|3------------------------|3------------------------|
D|1------------------------|1------------------------|
A|-------------------------|-------------------------|
E|-------------------------|-------------------------|

Chorus

00:21
 Ab5
e|------------ ------------|------------ ------------|
B|-------------------------|-------------------------|
G|-------------------------|---------------------6---|
D|--------6------------9---|--------6----------------|
A|----6------------6/8-----|----6------------6/8-----|
E|4------------------------|4------------------------|

If you want tell now
me, me
e|------------ ------------|------------ ------------|
B|-------------------------|-------------------------|
G|-------------------------|-------------------------|
D|6---6--------------------|6------------------------|
A|6---6--------------------|6------------------------|
E|4---4--------------------|4------------------------|
e|------------ ------------|------------ ------------|
B|-------------------------|-------------------------|
G|-------------------------|---------------------6---|
D|--------6------------9---|--------6----------------|
A|----6------------6/8-----|----6------------6/8-----|
E|4------------------------|4------------------------|

If can of help, tell how
I be any me
e|------------ ------------|------------ ------------|
B|-------------------------|-------------------------|
G|-------------------------|-------------------------|
D|6---6--------------------|6------------------------|
A|6---6--------------------|6------------------------|
E|4---4--------------------|4------------------------|
e|------------ ------------|------------ ------------|
B|-------------------------|-------------------------|
G|-------------------------|---------------------6---|
D|--------6------------9---|--------6----------------|
A|----6------------6/8-----|----6------------6/8-----|
E|4------------------------|4------------------------|

Let me love like friend
you a

e|------------ ------------|------------ ------------|
B|-------------------------|-------------------------|
G|-------------------------|-------------------------|
D|6---6--------------------|6------------------------|
A|6---6--------------------|6------------------------|
E|4---4--------------------|4------------------------|
e|------------ ------------|------------ ------------|
B|-------------------------|-------------------------|
G|-------------------------|---------------------6---|
D|--------6------------9---|--------6----------------|
A|----6------------6/8-----|----6------------6/8-----|
E|4------------------------|4------------------------|

Everything come right the
is gonna in end
e|------------ ------------|------------ ------------|
B|-------------------------|-------------------------|
G|-------------------------|-------------------------|
D|6---6--------------------|6------------------------|
A|6---6--------------------|6------------------------|
E|4---4--------------------|4------------------------|     


Verse 2

00:41

e|------------ ------------|------------ ------------|
B|--------2------------2---|--------2------------2---|
G|----3------------3-------|----1------------1-------|
D|4------------4-----------|3------------3-----------|
A|-------------------------|-------------------------|
E|-------------------------|-------------------------|

When crying like poor child
you're a little
e|6----------- ------------|4----------- ------------|
B|7------------------------|6------------------------|
G|6------------------------|6------------------------|
D|8------------------------|6------------------------|
A|-------------------------|-------------------------|
E|-------------------------|-------------------------|
e|------------ 6-----------|------------ 4-----------|
B|-------------7-----------|-------------6-----------|
G|-------------6-----------|-------------6-----------|
D|-------------8-----------|-------------6-----------|
A|-------------9-----------|-------------4-----------|
E|-------------------------|-------------------------|
e|------------ ------------|------------ ------------|
B|--------4------------4---|--------2------------2---|
G|----2------------2-------|----3------------3-------|
D|3------------3-----------|3------------3-----------|
A|-------------------------|-------------------------|
E|-------------------------|-------------------------|

And feeling you could
you're like never be reconciled
e|5----------- ------------|6----------- ------------|
B|6------------------------|6------------------------|
G|5------------------------|6------------------------|
D|7------------------------|8------------------------|
A|-------------------------|-------------------------|
E|-------------------------|-------------------------|
e|------------ 5-----------|------------ 6-----------|
B|-------------6-----------|-------------6-----------|
G|-------------5-----------|-------------6-----------|
D|-------------7-----------|-------------8-----------|
A|-------------8-----------|-------------8-----------|
E|-------------------------|-------------6-----------|
e|------------ ------------|------------ ------------|
B|--------2------------2---|-------------------------|
G|----1------------1-------|--------5------------5---|
D|2------------2-----------|----6------------6-------|
A|-------------------------|6------------6-----------|
E|-------------------------|-------------------------|          

Don't forget word of
 a
e|4----------- ------------|4----------- ------------|
B|5------------------------|4------------------------|
G|6------------------------|5------------------------|
D|6------------------------|6------------------------|
A|-------------------------|6------------------------|
E|-------------------------|-------------------------|
e|------------ 4-----------|------------ 4-----------|
B|-------------5-----------|-------------4-----------|
G|-------------6-----------|-------------5-----------|
D|-------------6-----------|-------------6-----------|
A|-------------4-----------|-------------6-----------|
E|-------------------------|-------------4-----------|
e|12---------- ------------|------------ ------------|
B|14-----14----------------|13-----------------------|
G|13-----------13----------|13-----13----------------|
D|14-----------------------|13-----------13----------|
A|-------------------------|15-----------------------|
E|-------------------------|-------------------------|
e|------------ ------------|------------ ------------|
B|-------------------------|-------------------------|
G|--------3------------3---|--------3------------3---|
D|----5------------5-------|----5------------5-------|
A|6------------6-----------|4------------4-----------|
E|-------------------------|-------------------------|          

what saying Oh
I'm
e|3----------- ------------|3----------- ------------|
B|4------------------------|2------------------------|
G|3------------------------|3------------------------|
D|1------------------------|1------------------------|
A|-------------------------|-------------------------|
E|-------------------------|-------------------------|
e|------------ 6-----------|------------ 6-----------|
B|-------------8-----------|-------------8-----------|
G|-------------8-----------|-------------6-----------|
D|-------------8-----------|-------------8-----------|
A|-------------6-----------|-------------6-----------|
E|-------------------------|-------------------------|


Chorus

01:02

e|------------ ------------|------------ ------------|
B|-------------------------|-------------------------|
G|-------------------------|---------------------6---|
D|--------6------------9---|--------6----------------|
A|----6------------6/8-----|----6------------6/8-----|
E|4------------------------|4------------------------|

If you want tell now
me, me
e|------------ ------------|------------ ------------|
B|-------------------------|-------------------------|
G|-------------------------|-------------------------|
D|6---6--------------------|6---6--------------------|
A|6---6--------------------|6---6--------------------|
E|4---4--------------------|4---4--------------------|
e|------------ ------------|------------ ------------|
B|-------------------------|-------------------------|
G|-------------------------|---------------------6---|
D|--------6------------9---|--------6----------------|
A|----6------------6/8-----|----6------------6/8-----|
E|4------------------------|4------------------------|

If can of help, tell how
I be any me
e|------------ ------------|------------ ------------|
B|-------------------------|-------------------------|
G|-------------------------|-------------------------|
D|6------------------------|6------------------------|
A|6------------------------|6------------------------|
E|4------------------------|4------------------------|
e|------------ ------------|------------ ------------|
B|-------------------------|-------------------------|
G|-------------------------|---------------------6---|
D|--------6------------9---|--------6----------------|
A|----6------------6/8-----|----6------------6/8-----|
E|4------------------------|4------------------------|

Let me love like friend
you a
e|------------ ------------|------------ ------------|
B|-------------------------|-------------------------|
G|-------------------------|-------------------------|
D|6------------------------|6---6--------------------|
A|6------------------------|6---6--------------------|
E|4------------------------|4---4--------------------|
e|------------ ------------|------------ ------------|
B|-------------------------|-------------------------|
G|-------------------------|---------------------6---|
D|--------6------------9---|--------6----------------|
A|----6------------6/8-----|----6------------6/8-----|
E|4------------------------|4------------------------|

Everything come right the Well,
is gonna in end I can
e|------------ ------------|------------ ------------|
B|-------------------------|-------------------------|
G|-------------------------|-------------------------|
D|6---6---6----------------|6---6---6----------------|
A|6---6---6----------------|6---6---6----------------|
E|4---4---4----------------|4---4---4----------------|


Middle eight

01:22
 C#F#F#sus4
e|------------ ------------|------------ ------------|
B|--------2------------2---|--------2------------0---|
G|----1------------1-------|----3------------3-------|
D|3------------------------|4------------4-----------|
A|-------------------------|-------------------------|
E|-------------------------|-------------------------|

hold you too tight I could
e|------------ ------------|------------ ------------|
B|6------------------------|2------------------------|
G|6------------------------|3----------------3---4---|
D|6------------------------|4------------------------|
A|4------------------------|4----------------1---2---|
E|-------------------------|2------------------------|


 C#F#
e|------------ ------------|------------ ------------|
B|--------2------------2---|--------2------------2---|
G|----1------------1-------|----3------------3-------|
D|3------------3-----------|4------------4-----------|
A|-------------------------|-------------------------|
E|-------------------------|-------------------------|

never go, but wouldn't right
let that be
you
e|------------ ------------|------------ ------------|
B|6------------------------|2--------------------4---|
G|6------------------------|3----------------3-------|
D|6------------------------|4--------------------1---|
A|4------------------------|4----------------1-------|
E|-------------------------|2------------------------|


(.
 C#B
e|------------ 2-----------|------------ ------------|
B|--------2----------------|-------------------------|
G|----1--------------------|--------4------------4---|
D|3------------------------|----4------------4-------|
A|-------------------------|6------------6-----------|
E|-------------------------|-------------------------|

So, why let me (let me
don't know know)
you
e|------------ ------------|------------ ------------|
B|6------------------------|4------------------------|
G|6------------------------|4------------------------|
D|6------------------------|4------------------------|
A|4------------------------|2------------------------|
E|-------------------------|-------------------------|     


(.
 C#F#
e|------------ ------------|------------ 2-----------|
B|-------------------------|--------2----------------|
G|--------6------------6---|----3--------------------|
D|----6------------6-------|4------------------------|
A|8------------8-----------|-------------------------|
E|-------------------------|-------------------------|

let me what wanna do
know you
e|------------ ------------|------------ ------------|
B|6------------------------|2------------------------|
G|6------------------------|3------------------------|
D|6------------------------|4------------------------|
A|4------------------------|4------------------------|
E|-------------------------|2------------------------|

Verse 3 and Chorus 01:42 to 02:23 go just the same
as the above seen. Then the following:
02:24 (.
 F#Abm6F#
e|------------ ------------|------------ ------------|
B|-------------------------|-------------------------|
G|---------------------4---|-------------------------|
D|-----------------3-------|-------------4-----------|
A|----1---4----------------|----1---4----------------|
E|2------------4-----------|2------------------------|
e|------------ ------------|------------ ------------|
B|-------------------------|-------------------------|
G|---------------------4---|-------------------------|
D|-----------------3-------|-------------4-----------|
A|----1---4----------------|----1---4----------------|
E|2------------4-----------|2------------------------|
e|------------ ------------|------------ 2-----------|
B|-------------------------|--------2----------------|
G|-------------------------|----3--------------------|
D|-------------------------|4------------------------|
A|-------------------------|-------------------------|
E|-------------------------|-------------------------| 

Now the Middle Eight again 02:29 - 02:43
and then the final Chorus, as follows:

02:44

e|------------ ------------|------------ ------------|
B|-------------------------|-------------------------|
G|-------------------------|---------------------6---|
D|--------6------------9---|--------6----------------|
A|----6------------6/8-----|----6------------6/8-----|
E|4------------------------|4------------------------|

If you want tell now
me, me
e|------------ ------------|------------ ------------|
B|-------------------------|-------------------------|
G|-------------------------|---------------------6---|
D|6---6---6----6-----------|6---6---6--------4---6---|
A|6---6---6----6-----------|6---6---6--------4---4---|
E|4---4---4----4-----------|4---4---4--------2-------|
e|------------ ------------|------------ ------------|
B|-------------------------|-------------------------|
G|-------------------------|---------------------6---|
D|--------6------------9---|--------6----------------|
A|----6------------6/8-----|----6------------6/8-----|
E|4------------------------|4------------------------|

If can of help, tell how
I be any me
e|------------ ------------|------------ ------------|
B|-------------------------|-------------------------|
G|-------------------------|---------------------6---|
D|6---6---6----6-----------|6---6---6--------4---6---|
A|6---6---6----6-----------|6---6---6--------4---4---|
E|4---4---4----4-----------|4---4---4--------2-------|
e|------------ ------------|------------ ------------|
B|-------------------------|-------------------------|
G|-------------------------|---------------------6---|
D|--------6------------9---|--------6----------------|
A|----6------------6/8-----|----6------------6/8-----|
E|4------------------------|4------------------------|

Let me love like friend
you a
e|------------ ------------|------------ ------------|
B|-------------------------|-------------------------|
G|-------------------------|-------------------------|
D|6---6---6----------------|6---6---6----6---6-------|
A|6---6---6----------------|6---6---6----6---6-------|
E|4---4---4----------------|4---4---4----4---4-------|
e|------------ ------------|------------ ------------|
B|-------------------------|-------------------------|
G|-------------------------|---------------------6---|
D|--------6------------9---|--------6----------------|
A|----6------------6/8-----|----6------------6/8-----|
E|4------------------------|4------------------------|

Every thing come right the
little is gonna in end

e|------------ ------------|------------ ------------|
B|-------------------------|-------------------------|
G|-------------------------|-------------------------|
D|6---6---6----------------|6---6---6----6---6---6---|
A|6---6---6----------------|6---6---6----6---6---6---|
E|4---4---4----------------|4---4---4----4---4---4---|

Coda
03:05
 F#Abm6F#Abm6
e|------------ ------------|------------ ------------|
B|-------------------------|-------------------------|
G|---------------------4---|--------------------4----|
D|--------4--------3-------|--------4--------3-------|
A|----1--------------------|----1--------------------|
E|2------------4-----------|2------------4-----------|

Souvenir
e|------------ ------------|------------ ------------|
B|-----------------0---0---|-----------------0---0---|
G|-------------------------|3------------------------|
D|-------------3-------3---|-------------3-------3---|
A|-------------------------|-------------------------|
E|-------------------------|-------------------------|
e|------------ ------------|------------ ------------|
B|-------------------------|-------------------------|
G|---------------------4---|---------------------4---|
D|--------4--------3-------|--------4--------3-------|
A|----1--------------------|----1--------------------|
E|2------------4-----------|2------------4-----------|

(Souvenir) No not
another
e|------------ ------------|------------ ------------|
B|-----------------0---0---|-----------------0---0---|
G|3------------------------|3------------------------|
D|-------------3-------3---|---------------------3---|
A|-------------------------|-------------------------|
E|-------------------------|-------------------------|
e|------------ ------------|------------ ------------|
B|-------------------------|-------------------------|
G|---------------------4---|--------------------4----|
D|--------4--------3-------|--------4--------3-------|
A|----1--------------------|----1--------------------|
E|2------------4-----------|2------------4-----------|

Souvenir Souvenir
e|------------ ------------|------------ ------------|
B|-----------------0---0---|-----------------0---0---|
G|3------------------------|3------------------------|
D|-------------3-------3---|-------------3-------3---|
A|-------------------------|-------------------------|
E|-------------------------|-------------------------|
e|------------ ------------|------------ ------------|
B|-------------------------|-------------------------|
G|---------------------4---|--------------------4----|
D|--------4--------3-------|--------4--------3-------|
A|----1--------------------|----1--------------------|
E|2------------4-----------|2------------4-----------|

No no no no no no
e|------------ ------------|------------ ------------|
B|-----------------0---0---|-----------------0---0---|
G|3------------------------|3------------------------|
D|-------------3-------3---|---------------------3---|
A|-------------------------|-------------------------|
E|-------------------------|-------------------------|


B Bend
R Release
/ Slide up
\ Slide down
H Hammer-on
P Pull-off
~ Vibrato
+ Harmonic
x Mute note
. Play note like a dot in standard notation
^ Ties two notes together
(. Pause

END

+--------------------------------------------------------------------------+

| This file is the author's own work and represents their interpretation |
| of the song. You may only use this file for private study, scholarship, |
| or research. |
+--------------------------------------------------------------------------+


Ultimate-Guitar.Com © 2005


Ab Ab5 Abm6 B Bbm C# C#m Eb Eb7 F# F#sus4 F7
variations - click chord images
Transpose chords:
Tuning:
Cool service:
View: Size:
A  A  A
Rating:
Layout:
  • Currently 0/5 Stars.
  • 1
  • 2
  • 3
  • 4
  • 5
 
Accuracy:
  • Currently 0/5 Stars.
  • 1
  • 2
  • 3
  • 4
  • 5
 
click stars to rate
Chordie recommends:
Learn to play this song & others via video guitar lessons at JamPlay.com
Songbook:
Login to add this song to your songbook
Support the artist
Preview/buy this song
MSN Music
Why this non-profit ad?

 
login to add comments/video/corrections