Guitar Tabs, Chords and Lyrics


Who Knew   Pink



| Ultimate Guitar Tabs Archive - your #1 source for tabs!               |
| http://www.ultimate-guitar.com/                                       |
|                                                                       |
| Over 200,000 guitar, guitar pro and bass tabs! Also lessons, news,    |
| columns and guitar forums!                                            |


Artist: Pink
Song: Who Knew


Who knew ;) That's the song ... pretty easy !

INTRO
E|-------------------------------|
B|-------------------------------|
G|-6-6-6-6-6-6---9-9-9-9-9-9-----|
D|-7-7-7-7-7-7---7-7-7-7-7-7-----|
A|-------------------------------|
E|-------------------------------| 2 Times

VERSE
E|------------------------------|
B|------------------------------|
G|-6-6-6-6-6-6--9-9-9-9-9-9-----|
D|-7-7-7-7-7-7--7-7-7-7-7-7-----|
A|------------------------------|
E|------------------------------| 2 Times

 Around................ Aha.. thats right
E|----------------------------------------------|
B|----------------------------------------------|
G|-7-7-7-7-7--6-6-6-6-6--4-4-4-4-4-4-4-4-4-4-4--|
D|-9-9-9-9-9--4-4-4-4-4--2-2-2-2-2-2-2-2-2-2-2--|
A|----------------------------------------------|
E|----------------------------------------------|

CHORUS
E|--------------------------------------------------------|
B|--------------------------------------------------------|
G|--------------------------------------------------------|
D|-7-7-7-7-7--9-9-9-9-9--11-11-11-11-11--7-7-7-7-7-7-7----|
A|-5-5-5-5-5--7-7-7-7-7--9--9--9--9--9---0-0-0-0-0-0-0----|
E|--------------------------------------------------------|



END

+--------------------------------------------------------------------------+
| This file is the author's own work and represents their interpretation   |
| of the song. You may only use this file for private study, scholarship,  |
| or research.                                                             |
+--------------------------------------------------------------------------+



Important: The song above is NOT stored on the Chordie server. The original song is hosted at www.ultimate-guitar.com. Chordie works as a search engine and provides on-the-fly formatting. Chordie does not index songs against artists'/composers' will. To remove this song please click here.

This song is displayed as text-only. Transposing and tuning is only available for chordpro-songs.

Login - add to songbook

Rating click stars to rate

Layout
Accuracy

SHARE PAGE  




You need to log in to post comments