Chordie logo

Waiting On The World To Change     John Mayer



| Ultimate Guitar Tabs Archive - your #1 source for tabs!               |
| http://www.ultimate-guitar.com/                                       |
|                                                                       |
| Over 200,000 guitar, guitar pro and bass tabs! Also lessons, news,    |
| columns and guitar forums!                                            |


Artist: John Mayer
Song: Waiting On The World To Change


-------------------------------------------------------------------------------
		WAITING ON THE WORLD TO CHANGE (Solo) - John Mayer
-------------------------------------------------------------------------------
Tabbed by: Paul Chalabian
Email: nr0@comcast.net

Tuning: Standard


Part 1:

e|--------5----5-7--5-7-10--7-10/12-17-----15p14h15p14h15p14----|
B|-7--5-7----7-------------------------15--------------------15-|
G|--------------------------------------------------------------|
D|--------------------------------------------------------------|
A|--------------------------------------------------------------|
E|--------------------------------------------------------------|


Part 2:

e|-----5-10--5-7------------------------------------------------|
B|-5-7-----------7--5-7/10--5-7---------------------------------|
G|------------------------------7-------------------------------|
D|--------------------------------------------------------------|
A|--------------------------------------------------------------|
E|--------------------------------------------------------------|


| /  slide up
| \  slide down
| h  hammer-on
| p  pull-off
| ~  vibrato
| +  harmonic
| x  Mute note
===============================================================================

END

+--------------------------------------------------------------------------+
| This file is the author's own work and represents their interpretation   |
| of the song. You may only use this file for private study, scholarship,  |
| or research.                                                             |
+--------------------------------------------------------------------------+



Important: The song above is NOT stored on the Chordie server. The original song is hosted at www.ultimate-guitar.com. Chordie works as a search engine and provides on-the-fly formatting. Chordie does not index songs against artists/composers will. To remove this song please click here.

This song is displayed as text-only. Transposing and tuning is only available for chordpro-songs.

Rating click stars to rate

Layout
Accuracy

SHARE PAGE  

You need to log in to post comments

danna (report)

Hi,I really like this song but never understand this bars ---5/7--- ??
can you please help me I only understand when the notes are written above the words...hope you understand what I mean..thanx