Chordie logo


   Various Artists


this is the main riff and the bridge

let's go:

MAIN RIFF

e---8------------6------------4-----------3----3--333-----------------------|
b---------------------------------------------------------------------------|
g---------------------------------------------------------------------------|
d-66--66--666--55--55--555--33-33--333--11---11-----------------------------|
a---------------------------------------------------------------------------|
e---------------------------------------------------------------------------|

BRIDGE

e---88--889-8--66--668-6---44--446-4---3----3--333---------------------------|
b----------------------------------------------------------------------------|
g----------------------------------------------------------------------------|
d-66---------55----------33-33--333--11---11---------------------------------|
a----------------------------------------------------------------------------|


Important: The song above is NOT stored on the Chordie server. The original song is hosted at www.ultimate-guitar.com. Chordie works as a search engine and provides on-the-fly formatting. Chordie does not index songs against artists/composers will. To remove this song please click here.

This song is displayed as text-only. Transposing and tuning is only available for chordpro-songs.

Login - add to songbook

Rating click stars to rate

Layout
Accuracy

SHARE PAGE  




You need to log in to post comments