Leave Me Alone Im Lonely

Pink

e|----10---10---10---10---10---10---10---10---10---10---10---10-----|

B|------8----8----8----7----7----7----8----8----8----10---10---10---|
G|--------0----0---------7----7---------9----9---------7----7-------|
D|------------------------------------------------------------------|
A|------------------------------------------------------------------|
E|------------------------------------------------------------------|
e|----10---10---10---10---10---10---10---10---10---10---10---10-----|
B|------8----8----8----7----7----7----8----8----8----10---10---10---|
G|--------0----0---------7----7---------9----9---------7----7-------|
D|------------------------------------------------------------------|
A|------------------------------------------------------------------|
E|------------------------------------------------------------------|
e|------------------------------------------------------------------|
B|-8-8-8-8-8-8-8-8-7-7-7-7-7-7-7-7-8-8-8-8-8-8-8-8-1010101010101010-|
G|-0-0-0-0-0-0-0-0-7-7-7-7-7-7-7-7-9-9-9-9-9-9-9-9-7-7-7-7-7-7-7-7--|
D|------------------------------------------------------------------|
A|------------------------------------------------------------------|
E|------------------------------------------------------------------|
e|------------------------------------------------------------------|
B|-8-8-8-8-8-8-8-8-7-7-7-7-7-7-7-7-8-8-8-8-8-8-8-8-1010101010101010-|
G|-0-0-0-0-0-0-0-0-7-7-7-7-7-7-7-7-9-9-9-9-9-9-9-9-7-7-7-7-7-7-7-7--|
D|------------------------------------------------------------------|
A|------------------------------------------------------------------|
E|------------------------------------------------------------------|
e|------------------------------------------------------------------|
B|-8-8-8-8-8-8-8-8-7-7-7-7-7-7-7-7-8-8-8-8-8-8-8-8-1010101010101010-|
G|-0-0-0-0-0-0-0-0-7-7-7-7-7-7-7-7-9-9-9-9-9-9-9-9-7-7-7-7-7-7-7-7--|
D|------------------------------------------------------------------|
A|------------------------------------------------------------------|
E|------------------------------------------------------------------|
e|------------------------------------------------------------------|
B|------------------------------------------------------------------|
G|------------------------------------------------------------------|
D|-5-5-5-5-5-5-5-5--------------------------------------------------|
A|-----------------5-5-5-5-5-5-5-5-3-3-3-3-3-3-3-3-5-5-5-5-5-5-5-5--|
E|------------------------------------------------------------------|
e|------------------------------------------------------------------|
B|-8-8-8-8-8-8-8-8-7-7-7-7-7-7-7-7-8-8-8-8-8-8-8-8-1010101010101010-|
G|-0-0-0-0-0-0-0-0-7-7-7-7-7-7-7-7-9-9-9-9-9-9-9-9-7-7-7-7-7-7-7-7--|
D|------------------------------------------------------------------|
A|------------------------------------------------------------------|
E|------------------------------------------------------------------|

 EmDC
e|------7-7-7-7-7-7-7-7-5-5-5-5-5-5-5-5-3-3-3-3-3-3-3-3-3-3---------|
B|------8-8-8-8-8-8-8-8-7-7-7-7-7-7-7-7-5-5-5-5-5-5-5-5-5-5---------|
G|------9-9-9-9-9-9-9-9-7-7-7-7-7-7-7-7-5-5-5-5-5-5-5-5-5-5---------|
D|------9-9-9-9-9-9-9-9-7-7-7-7-7-7-7-7-5-5-5-5-5-5-5-5-5-5---------|
A|------7-7-7-7-7-7-7-7-5-5-5-5-5-5-5-5-3-3-3-3-3-3-3-3-3-3---------|
E|------------------------------------------------------------------|


Chorus :
Tonight... Leave me alone I'm lonely Alone I'm lonely
 GDCD
e|--3-3-3-3-3-3-3-3-5-5-5-5-5-5-5-5-3-3-3-3-3-3-3-3-5-5-5-5-5-5-5-5-|
B|--3-3-3-3-3-3-3-3-7-7-7-7-7-7-7-7-5-5-5-5-5-5-5-5-7-7-7-7-7-7-7-7-|
G|--4-4-4-4-4-4-4-4-7-7-7-7-7-7-7-7-5-5-5-5-5-5-5-5-7-7-7-7-7-7-7-7-|
D|--5-5-5-5-5-5-5-5-7-7-7-7-7-7-7-7-5-5-5-5-5-5-5-5-7-7-7-7-7-7-7-7-|
A|--5-5-5-5-5-5-5-5-5-5-5-5-5-5-5-5-3-3-3-3-3-3-3-3-5-5-5-5-5-5-5-5-|
E|--3-3-3-3-3-3-3-3-------------------------------------------------|


I'm tired... Leave me alone I'm lonely Alone I'm lonely tonight
 GDCD
e|--3-3-3-3-3-3-3-3-5-5-5-5-5-5-5-5-3-3-3-3-3-3-3-3-5-5-5-5-5-5-5-5-|
B|--3-3-3-3-3-3-3-3-7-7-7-7-7-7-7-7-5-5-5-5-5-5-5-5-7-7-7-7-7-7-7-7-|
G|--4-4-4-4-4-4-4-4-7-7-7-7-7-7-7-7-5-5-5-5-5-5-5-5-7-7-7-7-7-7-7-7-|
D|--5-5-5-5-5-5-5-5-7-7-7-7-7-7-7-7-5-5-5-5-5-5-5-5-7-7-7-7-7-7-7-7-|
A|--5-5-5-5-5-5-5-5-5-5-5-5-5-5-5-5-3-3-3-3-3-3-3-3-5-5-5-5-5-5-5-5-|
E|--3-3-3-3-3-3-3-3-------------------------------------------------|


Guitar 1
e|----10---10---10---10---10---10---10---10---10---10---10---10-----|
B|------8----8----8----7----7----7----8----8----8----10---10---10---|
G|--------0----0---------7----7---------9----9---------7----7-------|
D|------------------------------------------------------------------|
A|------------------------------------------------------------------|
E|------------------------------------------------------------------|


Guitar 1 & 2
I don't wanna wake up with another, But I don't wanna always wake up with you either
e|------------------------------------------------------------------|
B|-8-8-8-8-8-8-8-8-7-7-7-7-7-7-7-7-8-8-8-8-8-8-8-8-1010101010101010-|
G|-0-0-0-0-0-0-0-0-7-7-7-7-7-7-7-7-9-9-9-9-9-9-9-9-7-7-7-7-7-7-7-7--|
D|------------------------------------------------------------------|
A|------------------------------------------------------------------|
E|------------------------------------------------------------------|

No you can't hop into my shower, All I ask for is one ***kin' hour
e|------------------------------------------------------------------|
B|-8-8-8-8-8-8-8-8-7-7-7-7-7-7-7-7-8-8-8-8-8-8-8-8-1010101010101010-|
G|-0-0-0-0-0-0-0-0-7-7-7-7-7-7-7-7-9-9-9-9-9-9-9-9-7-7-7-7-7-7-7-7--|
D|------------------------------------------------------------------|
A|------------------------------------------------------------------|
E|------------------------------------------------------------------|


Guitar 1
You taste so sweet, But I can't eat the same thing every day
 GDCD
e|-3--3---3--3--3---5--5---5--5--5---3--3---3--3--3---5--5---5--5--5|
B|-3--3---3--3--3---7--7---7--7--7---5--5---5--5--5---7--7---7--7--7|
G|-4--4---4--4--4---7--7---7--7--7---5--5---5--5--5---7--7---7--7--7|
D|-5--5---5--5--5---7--7---7--7--7---5--5---5--5--5---7--7---7--7--7|
A|-5--5---5--5--5---5--5---5--5--5---3--3---3--3--3---5--5---5--5--5|
E|-3--3---3--3--3---------------------------------------------------|

Guitar 2

e|------------------------------------------------------------------|
B|-8-8-8-8-8-8-8-8-7-7-7-7-7-7-7-7-8-8-8-8-8-8-8-8-1010101010101010-|
G|-0-0-0-0-0-0-0-0-7-7-7-7-7-7-7-7-9-9-9-9-9-9-9-9-7-7-7-7-7-7-7-7--|
D|------------------------------------------------------------------|
A|------------------------------------------------------------------|
E|------------------------------------------------------------------|


Guitar 1 & 2
Cuttin off the phone, Leave me the ***k alone, Tomorrow I'll be beggin' you to come home
 EmDCD
e|--7--7-------------5--5-----------------3-3-3-3-3-3-3-3-5---------|
B|--8--8-------------7--7-----------------5-5-5-5-5-5-5-5-7---------|
G|--9--9-------------7--7-----------------5-5-5-5-5-5-5-5-7---------|
D|--9--9-------------7--7-----------------5-5-5-5-5-5-5-5-7---------|
A|--7--7-------------5--5-----------------3-3-3-3-3-3-3-3-5---------|
E|------------------------------------------------------------------|


Chorus :

Tonight, Leave me alone I'm lonely Alone I'm lonely
I'm tired, Leave me alone I'm lonely, Alone I'm lonely tonight

Go away Come back, Go away Come back, Why can't I just have it both ways
 CDGEm
e|-3--3---3--3--3---5--5---5--5--5---3--3---3--3--3---7--7---7--7--7|
B|-5--5---5--5--5---7--7---7--7--7---3--3---3--3--3---8--8---8--8--8|
G|-5--5---5--5--5---7--7---7--7--7---4--4---4--4--4---9--9---9--9--9|
D|-5--5---5--5--5---7--7---7--7--7---5--5---5--5--5---9--9---9--9--9|
A|-3--3---3--3--3---5--5---5--5--5---5--5---5--5--5---7--7---7--7--7|
E|-----------------------------------3--3---3--3--3----------------|

Go away Come back, Go awaymCome back, I wish you knew the difference
 CDGEm
e|-3--3---3--3--3---5--5---5--5--5---3--3---3--3--3---7--7---7--7--7|
B|-5--5---5--5--5---7--7---7--7--7---3--3---3--3--3---8--8---8--8--8|
G|-5--5---5--5--5---7--7---7--7--7---4--4---4--4--4---9--9---9--9--9|
D|-5--5---5--5--5---7--7---7--7--7---5--5---5--5--5---9--9---9--9--9|
A|-3--3---3--3--3---5--5---5--5--5---5--5---5--5--5---7--7---7--7--7|
E|-----------------------------------3--3---3--3--3-----------------|


Go away Come back...
e|--3-3-3-3-3-3-3-3-6-6-6-6-6-6-6-6---------------------------------|
B|--5-5-5-5-5-5-5-5-8-8-8-8-8-8-8-8---------------------------------|
G|--5-5-5-5-5-5-5-5-8-8-8-8-8-8-8-8---------------------------------|
D|--5-5-5-5-5-5-5-5-8-8-8-8-8-8-8-8---------------------------------|
A|--3-3-3-3-3-3-3-3-6-6-6-6-6-6-6-6---------------------------------|
E|------------------------------------------------------------------|


Guitar 1
e|----10---10---10---10---10---10---10---10---10---10---10---10-----|
B|------8----8----8----7----7----7----8----8----8----10---10---10---|
G|--------0----0---------7----7---------9----9---------7----7-------|
D|------------------------------------------------------------------|
A|------------------------------------------------------------------|
E|------------------------------------------------------------------|


Gutar 1 & 2 Play together X3
Guitar 1
Go away Give me a chance to miss you,Say goodbye It'll make me want to kiss you
e|----10---10---10---10---10---10---10---10---10---10---10---10-----|
B|------8----8----8----7----7----7----8----8----8----10---10---10---|
G|--------0----0---------7----7---------9----9---------7----7-------|
D|------------------------------------------------------------------|
A|------------------------------------------------------------------|
E|------------------------------------------------------------------|

Guitar 2
e|----7---------------5--------------3--------------5---------------|
B|----8---------------7--------------5--------------7---------------|
G|----7---------------7--------------5--------------7---------------|
D|------------------------------------------------------------------|
A|------------------------------------------------------------------|
E|------------------------------------------------------------------|


Chorus :

Tonight, Leave me alone I'm lonely Alone I'm lonely
I'm tired, Leave me alone I'm lonely Alone I'm lonely tonight
Tonight, Leave me alone I'm lonely Alone I'm lonely
I'm tired, Leave me alone I'm lonely Alone I'm lonely tonight

Gutar 1 & 2 Play together 3X
Guitar 1
Tonight (Go away Give me a chance to miss you)
Leave me alone I'm lonelyAlone I'm lonely
(Say goodbye It'll make me want to kiss you)
I'm tired (Go away Give me a chance to miss you)
Leave me alone I'm lonely Alone I'm lonely
(Say goodbye It'll make me want to kiss you)
Tonight
e|------------------------------------------------------------------|
B|------------------------------------------------------------------|
G|------------------------------------------------------------------|
D|-----5----7/---9-------------4----5----7----5----4----------------|
A|-------------------5----3-----------------------------------------|
E|------------------------------------------------------------------|

Guitar 2
 GDCD
e|-3--3---3--3--3---5--5---5--5--5---3--3---3--3--3---5--5---5--5--5|
B|-3--3---3--3--3---7--7---7--7--7---5--5---5--5--5---7--7---7--7--7|
G|-4--4---4--4--4---7--7---7--7--7---5--5---5--5--5---7--7---7--7--7|
D|-5--5---5--5--5---7--7---7--7--7---5--5---5--5--5---7--7---7--7--7|
A|-5--5---5--5--5---5--5---5--5--5---3--3---3--3--3---5--5---5--5--5|
E|-3--3---3--3--3---------------------------------------------------|


Gutar 1 & 2 Play together
Guitar 1
(Go away Give me a chance to miss you
Say goodbye It'll make me want to kiss you)
e|------------------------------------------------------------------|
B|------------------------------------------------------------------|
G|------------------------------------------------------------------|
D|-----5----7/---9-------------4----5----7----5----4\---------------|
A|-------------------5----3-----------------------------------------|
E|------------------------------------------------------------------|

Guitar 2
 GDCD
e|-3--3---3--3--3---5--5---5--5--5---3-3-3-3-3-3-3-3-5-5-5-5-5-5-5-5\|
B|-3--3---3--3--3---7--7---7--7--7---5-5-5-5-5-5-5-5-7-7-7-7-7-7-7-7\|
G|-4--4---4--4--4---7--7---7--7--7---5-5-5-5-5-5-5-5-7-7-7-7-7-7-7-7\|
D|-5--5---5--5--5---7--7---7--7--7---5-5-5-5-5-5-5-5-7-7-7-7-7-7-7-7\|
A|-5--5---5--5--5---5--5---5--5--5---3-3-3-3-3-3-3-3-5-5-5-5-5-5-5-5\|
E|-3--3---3--3--3----------------------------------------------------|


END

+--------------------------------------------------------------------------+

| This file is the author's own work and represents their interpretation |
| of the song. You may only use this file for private study, scholarship, |
| or research. |
+--------------------------------------------------------------------------+


Ultimate-Guitar.Com © 2005


C D Em G
variations - click chord images
Transpose chords:
Tuning:
Cool service:
View: Size:
A  A  A
Rating:
Layout:
  • Currently 3/5 Stars.
  • 1
  • 2
  • 3
  • 4
  • 5
 
Accuracy:
  • Currently 5/5 Stars.
  • 1
  • 2
  • 3
  • 4
  • 5
 
click stars to rate
Chordie recommends:
Learn to play guitar with video-based, online guitar lessons at JamPlay.com
Songbook:
Login to add this song to your songbook
Support the artist
Preview/buy this song
MSN Music
Why this non-profit ad?

 
login to add comments/video/corrections