Guitar Tabs, Chords and Lyrics


   Various Artists


this song sounds beautiful, especially on an acoustic, and although it has the wierd 
oh, i suggest you drop the E's and the A string, otherwise you'll break'em and it won't 
as good, that's how it's played. have fun with this one, it's fairly challenging.
d|-----------------------0-------------------------0-----------------------|
B|-------------------------5-77------5-------5-------------0---------------|
G|--------------------4--------------------------------------2-------------|
D|-------------------4-4---------------------------------------------------|
G|--44444444444444444------------------------------------------------------|
D|-------------------------------777---777/4---555-----000-------000000000-|

d|-------------------------------------------------------------------------|
B|------------02-----------------------------------------------------------|
G|----------2--------------------------------------------------------------|
D|------4------------------------------------------------------------------|
G|----3--------------------------------------------------------------------|
D|-12-----2----------------------------------------------------------------|
i know the beggining sounds right, if you get it down, but the ending i can't quite get 
sound right. but, after the end that i brought you to, you're supposed to start with the 
4 on the low G string. good luck.


Important: The song above is NOT stored on the Chordie server. The original song is hosted at www.ultimate-guitar.com. Chordie works as a search engine and provides on-the-fly formatting. Chordie does not index songs against artists/composers will. To remove this song please click here.

This song is displayed as text-only. Transposing and tuning is only available for chordpro-songs.

Login - add to songbook

Rating click stars to rate

Layout
Accuracy

SHARE PAGE  




You need to log in to post comments