Qing Fei De Yi

Harlem Yu

 CG
 Nan yi wang ji chu chi jian ni
 AmEm
 Yi shuang mi ren de yan jing  
 FC
 Zai wo nao hai li, ni de sheng ying
 FG
 Hui san bu qu  

 CG
 Wo ni de shuang shou gan jue ni de wen rou
 AmEm
 Zhen de you dian tou bu guo qi
 FEm
 Ni de tian zhen, wo xiang zhen xi
 FG
 Kan dao ni shuo wei qu wo hui shang xin

Chorus:

 CG
 Zhi pa wo zhi ji hui ai shang ni
 AmEm
 Bu gan rang zhi ji kao de tai jing
 FC
 Pa wo mei shen mo neng gou gei ni
 FG
 Ai ni ye xu yao hen ta de yong qi
 CG
 Zhi pa wo zhi ji hui ai shang ni
 AmEm
 Ye xu you tian hui qing bu zhi jing
 FE
 Xiang nian zhi ran zhi ji ku le zhi ji
 FGC
 Ai shang ni shi wo Qing fei de yi

Solo 1:
G C G Am F Em F G,
 CGAmFEmFG
Bridge:
 AmEmCG
 Shen mo yuan yin           
 FC
 Wo jing ran you hui yu jian ni
 AmEm
 Wo zhen de zhen de bu yuan yi
 FG
 Jiu zhe yang xian ru ai de xian jing
*then strum A G A

Then chorus higher one key
 GF#mGAD
Solo 2:
D A Bm G F#m G A X 2
then end on D

------


Electric Guitar part:

chorus 1st part
 CEm/B
-------8------------8-------|-------7------------7-------|
-----8----8-------8----8----|-----8----8-------8----8----|
------------9------------9--|------------9------------9--|
----------------------------|----------------------------|
----------------------------|----------------------------|
--8------------8------------|--7------------7------------|


 AmEm
-------5------------5-------|-------7------------7-------|
-----5----5-------5----5----|-----8----8-------8----8----|
------------5------------5--|------------9------------9--|
----------------------------|----------------------------|
----------------------------|--7------------7------------|
--5------------5------------|----------------------------|


 FEm
------------------------------------|--------------------7-------|
--------10--10-----------10--10-----|-------8----------8----8----|
-----10--------10-----10--------10--|-----9----9--------------7--|
------------------------------------|------------9---------------|
--8----------------8----------------|--7------------7------------|
------------------------------------|----------------------------|


 FGFG
-------------------------8---------|----------------------------------------|
--------10------------------10-----|---------12----------------10--------12-|
-----10-----10--------10-------10--|------12-----12---------10--------12----|
---------------10------------------|----------------12---10--------12-------|
--8----------------8---------------|--10------------------------------------|
-----------------------------------|----------------------------------------|


 CEm/B
-------8------------8-------|-------7------------7-------|
-----8----8-------8----8----|-----8----8-------8----8----|
------------9------------9--|------------9------------9--|
----------------------------|----------------------------|
----------------------------|----------------------------|
--8------------8------------|--7------------7------------|


 AmEm
-------5------------5-------|-------7------------7-------|
-----5----5-------5----5----|-----8----8-------8----8----|
------------5------------5--|------------9------------9--|
----------------------------|----------------------------|
----------------------------|--7------------7------------|
--5------------5------------|----------------------------|


 FEm

------------------------------------|--------------------7-------|
--------10--10-----------10--10-----|-------8----------8----8----|
-----10--------10-----10--------10--|-----9----9--------------7--|
------------------------------------|------------9---------------|
--8----------------8----------------|--7------------7------------|
------------------------------------|----------------------------|


 FGC
-------------------------------------|-------8------------8-------|
--------10----------------12---------|-----8----8-------8----8----|
-----10-----10---------12-----12-----|------------9------------9--|
---------------10----------------12--|----------------------------|
--8----------------10----------------|----------------------------|
-------------------------------------|--8------------8------------|


 C
-------------------|
--8----------------|
--9----------------|
-------------------|
-------------------|
--8----------------|


second chorus and solo part

------------------|------------------|-------8------------8-------|
------------------|------------------|-----8----8-------8----8----|
------------------|------------------|------------9------------9--|
------------------|------------------|----------------------------|
------------------|------------------|----------------------------|
------------------|------------------|--8------------8------------|


 Em/BAm
-------7------------7-------|-------5------------5-------|
-----8----8-------8----8----|-----5----5-------5----5----|
------------9------------9--|------------5------------5--|
----------------------------|----------------------------|
----------------------------|----------------------------|
--7------------7------------|--5------------5------------|


 EmF
-------7------------7-------|------------------------------------|
-----8----8-------8----8----|--------10--10-----------10--10-----|
------------9------------9--|-----10--------10-----10--------10--|
----------------------------|------------------------------------|
--7------------7------------|--8----------------8----------------|
----------------------------|------------------------------------|


 EmF
--------------------7-------|-------------------------8---------|
-------8----------8----8----|--------10------------------10-----|
-----9----9--------------7--|-----10-----10--------10-------10--|
------------9---------------|---------------10------------------|
--7------------7------------|--8----------------8---------------|
----------------------------|-----------------------------------|


 GFGC
----------------------------------------|-------8------------8-------|
---------12----------------10--------12-|-----8----8-------8----8----|
------12-----12---------10--------12----|------------9------------9--|
----------------12---10--------12-------|----------------------------|
--10------------------------------------|----------------------------|
----------------------------------------|--8------------8------------|


 Em/BAm

-------7------------7-------|-------5------------5-------|
-----8----8-------8----8----|-----5----5-------5----5----|
------------9------------9--|------------5------------5--|
----------------------------|----------------------------|
----------------------------|----------------------------|
--7------------7------------|--5------------5------------|


 EmF
-------7------------7-------|------------------------------------|
-----8----8-------8----8----|--------10--10-----------10--10-----|
------------9------------9--|-----10--------10-----10--------10--|
----------------------------|------------------------------------|
--7------------7------------|--8----------------8----------------|
----------------------------|------------------------------------|


 EmFG
--------------------7-------|-------------------------------------|
-------8----------8----8----|--------10----------------12---------|
-----9----9--------------7--|-----10-----10---------12-----12-----|
------------9---------------|---------------10----------------12--|
--7------------7------------|--8----------------10----------------|
----------------------------|-------------------------------------|


 CG
-------8------------8-------|--------------------------------------|
-----8----8-------8----8----|---------12---------13-12-------------|
------------9------------9--|------12-----12-----------12--14--12--|
----------------------------|----------------12--------------------|
----------------------------|--10----------------------------------|
--8------------8------------|--------------------------------------|


 CEmAm
-------8------------8-------|-------7------------5-------|
-----8----8-------8----8----|-----8----8-------5----5----|
------------9------------9--|------------9------------5--|
----------------------------|----------------------------|
----------------------------|--7-------------------------|
--8------------8------------|---------------5------------|


 FGFG
---------------------------------|-------------------8---8--8-------|
-----------------------12--------|---------------------8------8-----|
--------10----------------12-----|--------10--------------------10--|
-----10----10----------------12--|-----10----10---------------------|
--8------------10----------------|--8------------10-----------------|
---------------------------------|----------------------------------|


 CEmAm
-------8------------8-------|-------7------------5-------|
-----8----8-------8----8----|-----8----8-------5----5----|
------------9------------9--|------------9------------5--|
----------------------------|----------------------------|
----------------------------|--7-------------------------|
--8------------8------------|---------------5------------|


 FGFG
---------------------------------|-------------------8---8--8-------|
-----------------------12--------|---------------------8------8-----|
--------10----------------12-----|--------10--------------------10--|
-----10----10----------------12--|-----10----10---------------------|
--8------------10----------------|--8------------10-----------------|
---------------------------------|----------------------------------|


 AmEm

-------5------------5-------|-------7------------7-------|
-----5----5-------5----5----|-----8----8-------8----8----|
------------5------------5--|------------9------------9--|
----------------------------|----------------------------|
----------------------------|--7------------7------------|
--5------------5------------|----------------------------|


 FGCCEm/B
-------------------8---8--8-------|-------8-------8----7----|
---------------------8------8-----|-----8----8----8----8----|
--------10--------------------10--|------------9--9----9----|
-----10----10---------------------|-------------------------|
--8------------10-----------------|-------------------------|
----------------------------------|--8------------8----7----|


 AmEm
-------5------------5-------|-------7------------7-------|
-----5----5-------5----5----|-----8----8-------8----8----|
------------5------------5--|------------9------------9--|
----------------------------|----------------------------|
----------------------------|--7------------7------------|
--5------------5------------|----------------------------|


 FGsus4
-------------------------8---------|--------------------------------------|
--------10------------------10-----|---------13----------------13---------|
-----10-----10--------10-------10--|------12-----12---------12-----12-----|
---------------10------------------|----------------12----------------12--|
--8----------------8---------------|--10----------------10----------------|
-----------------------------------|--------------------------------------|


 AGAD
-------5-------3----5----|---------10----------------10---------|
-----5----5----3----5----|------10-----10---------10-----10-----|
------------6--4----6----|----------------11----------------11--|
-------------------------|--------------------------------------|
-------------------------|--------------------------------------|
--5------------3----5----|--10----------------10----------------|


 F#m/C#Bm
--------9---------------9---------|-------7------------7-------|
-----10----10--------10----10-----|-----7----7-------7----7----|
--------------11--------------11--|------------7------------7--|
----------------------------------|----------------------------|
----------------------------------|----------------------------|
--9---------------9---------------|--7------------7------------|


 F#mG
--------9---------------9---------|--------------------------------------|
-----10----10--------10----10-----|---------12--12------------12--12-----|
--------------11--------------11--|------12--------12------12--------12--|
----------------------------------|--------------------------------------|
--9---------------9---------------|--10----------------10----------------|
----------------------------------|--------------------------------------|


 F#mG
--------9---------------9---------|---------------------------10---------|
-----10----10--------10----10-----|---------12--------------------12-----|
--------------11--------------11--|------12-----12---------12--------12--|
----------------------------------|----------------12--------------------|
--9---------------9---------------|--10----------------10----------------|
----------------------------------|--------------------------------------|


 AGAD

----------------------------------------|---------10----------------10---------|
---------14----------------12--------14-|------10-----10---------10-----10-----|
------14-----14---------12--------14----|----------------11----------------11--|
----------------14---12--------14-------|--------------------------------------|
--12------------------------------------|--------------------------------------|
----------------------------------------|--10----------------10----------------|


 F#m/C#Bm
--------9---------------9---------|-------7------------7-------|
-----10----10--------10----10-----|-----7----7-------7----7----|
--------------11--------------11--|------------7------------7--|
----------------------------------|----------------------------|
----------------------------------|----------------------------|
--9---------------9---------------|--7------------7------------|


 F#mG
--------9---------------9---------|--------------------------------------|
-----10----10--------10----10-----|---------12--12------------12--12-----|
--------------11--------------11--|------12--------12------12--------12--|
----------------------------------|--------------------------------------|
--9---------------9---------------|--10----------------10----------------|
----------------------------------|--------------------------------------|


 F#mGA
--------9---------------9---------|--------------------10----10--10--------|
-----10----10--------10----10-----|-----------------------12--------12-----|
--------------11--------------11--|---------12-------------------------12--|
----------------------------------|------12----12--------------------------|
--9---------------9---------------|--10------------12----------------------|
----------------------------------|----------------------------------------|


 DGA
---------10----------------10---------|--------------------10----10--10--------|
------10-----10---------10-----10-----|-----------------------12--------12-----|
----------------11----------------11--|---------12-------------------------12--|
--------------------------------------|------12----12--------------------------|
--------------------------------------|--10------------12----------------------|
--10----------------10----------------|----------------------------------------|


 DD
---------10----------------10---------|---------10----------------10---------|
------10-----10---------10-----10-----|------10-----10---------10-----10-----|
----------------11----------------11--|----------------11----------------11--|
--------------------------------------|--------------------------------------|
--------------------------------------|--------------------------------------|
--10----------------10----------------|--10----------------10----------------|


 F#m/C#BmGA
--------------------7-----|--------------------------------|
--------10--------7-------|---------12---------14----------|
--------------------------|------12---------------14-------|
-----11-------------------|--------------------------14----|
--------------------------|--10----------12----------------|
--9----------7------------|--------------------------------|


 GAD
--------------------------------|---------10----------------10---------|
---------12---------------------|------10-----10---------10-----10-----|
------12------14-------14-------|----------------11----------------11--|
--------------------14----14----|--------------------------------------|
--10----------12----------------|--------------------------------------|
--------------------------------|--10----------------10----------------|


 F#m/C#BmGA

--------------------7-----|--------------------------------|
--------10--------7-------|---------12---------14----------|
--------------------------|------12---------------14-------|
-----11-------------------|--------------------------14----|
--------------------------|--10----------12----------------|
--9----------7------------|--------------------------------|


 GAD
--------------------------------|--5-------------
---------12---------------------|--7-------------
------12------14-------14-------|--7-------------
--------------------14----14----|--7-------------
--10----------12----------------|--5-------------
--------------------------------|---------------- 


This should sound correct, please post your corrections. Thank you.

END

+--------------------------------------------------------------------------+

| This file is the author's own work and represents their interpretation |
| of the song. You may only use this file for private study, scholarship, |
| or research. |
+--------------------------------------------------------------------------+


Ultimate-Guitar.Com © 2005


A Am Bm C D E Em Em/B F F#m F#m/C# G Gsus4
variations - click chord images
Transpose chords:
Tuning:
Cool service:
View: Size:
A  A  A
Rating:
Layout:
  • Currently 4/5 Stars.
  • 1
  • 2
  • 3
  • 4
  • 5
 
Accuracy:
  • Currently 4/5 Stars.
  • 1
  • 2
  • 3
  • 4
  • 5
 
click stars to rate
Chordie recommends:
Learn to play this song & others via video guitar lessons at JamPlay.com
Songbook:
Login to add this song to your songbook
Support the artist
Preview/buy this song
MSN Music
Why this non-profit ad?

 
login to add comments/video/corrections