Secret Heart

Feist

--0----0----0-----       -0---3----1---0---|        ---0----|

--1----1----1----- -1-------------1--| ---1----|
--0----0----2----- -0-------------0--| ---3----|
--2----0----2----- -2-------------2--| ---2----|
--3----2----0----- -3-------------3--| ---3----|
-------------------- ------------------| ---------|

 CFAmFG
-------------------------------------------------1---3---------|
---1----------------1p0-----------------1-------1---3----------|
-----0--------------------2--0-----------2-------2---0---------|
-------2--------------------------2-------2-------3---0--------|
-3----------------------------------------0--------3---2-------|
------------0--1-----------------------------------1---3-------|


C Fill # 1 C Fill # 2

 CAmFGC
--0----0----0-----------1-----3----------0---3----1---0------|
--1----1----1-----------1-----3----------1-------------1-----|
--0----0----2-----------2-----0----------0-------------0-----|
--2----0----2-----------3-----0----------2-------------2-----|
--3----2----0-----------3-----2----------3-------------3-----|
------------------------1-----3------------------------------|


Verse one: (can be played like intro)

 CFGAmFG
 Secret heart, what are you made of?  What are you so afraid of?
 CFGAmFG
 Could it be three simple words? Or the fear of being overheard?
C fill #1 F G C Fill #2
What's wrong? Let her in on your secret heart

Verse two
 CFGAmFG
 Secret heart why so mysterious? Why so sacred why so serious
 CFGAmFG
 Maybe you're just acting tough. maybe you're just not man enough
C fill #1 F G C Fill #2
What's wrong? Let her in on your secret heart

Bridge
F G C C?
This very secret you're trying to conceal
 FGC
Is the very same one you're dying to reveal
C fill #2 G
Go tell her how you feel

---SOLO----  (is just plucking a melody over the verse chords.)


Verse three
 CFG
 Secret heart, come out and share it,
 AmFG
 This loneliness, few can bear it,
 CFG
 May Please God, something to do with,
Am F G C fill #1
Admitting that you just can't go through it alone,
F G C fill #2
Let her in on your secret

---Bridge---


C fill #1 F G C fill #1 F G
Let her in on Your secret heart

---Repeat--X2---


end on C fill #2.

END

+--------------------------------------------------------------------------+

| This file is the author's own work and represents their interpretation |
| of the song. You may only use this file for private study, scholarship, |
| or research. |
+--------------------------------------------------------------------------+


Ultimate-Guitar.Com © 2005


Am C F G
variations - click chord images
Transpose chords:
Tuning:
Cool service:
View: Size:
A  A  A
Rating:
Layout:
  • Currently 0/5 Stars.
  • 1
  • 2
  • 3
  • 4
  • 5
 
Accuracy:
  • Currently 0/5 Stars.
  • 1
  • 2
  • 3
  • 4
  • 5
 
click stars to rate
Chordie recommends:
Check out these online guitar lessons
Songbook:
Login to add this song to your songbook
Support the artist
Preview/buy this song
MSN Music
Why this non-profit ad?

 
login to add comments/video/corrections