eToCache5 = ""; ?> Selepas Kau Pergi by La Luna - guitar chords, guitar tabs and lyrics - chordie

Selepas Kau Pergi

La Luna

-----------------------------------------------------------------------------

-----------------------------------------------------------------------------
e||----7------6--------||---7--------||
B||.---7------7------.-||---7--------||
G||.---8------8------.-||---8--------||
D||----9------8--------||---9--------||
A||----9---------------||---9--------||
E||--------------------||------------||

 B
Selepas kau pergi
 C#m
Tinggallah disini kusendiri
 F#E
Kumerasakan sesuatu  
 B
Yang tlah hilang di dalam hidupku

 B
Dalam lubuk hatimu
 C#m
Ku yakin kau pun sebenarnya tak
 F#E
Inginkan lepas dariku 
 B
Taukah kau kini kuterluka

 C#mF#
Bantu aku membencimu
 D#mB
Kuterlalu mencintaimu
 C#mE5
Dirimu begitu       
 B
Berarti untukku..

Kau telah mencinta
Dan dicintai kekasihmu
Ini tak adil bagiku
Hilanglah dambaku kala hampa

Bantu aku membencimu
Kuterlalu mencintaimu
Dirimu begitu
Berarti untukku..

Solo

Chord during solo
 G#mC#mF#B
e|-----------|----------------|----------|-------------|
B|-----------|----------------|----------|-------------|
G|-----------|-------8--4---6-|----------|------6-3--4-|
D|---9-8^--6-|-6-6------------|-9-8^--4--|--4-4--------|
A|-----------|----------------|----------|-------------|
E|-----------|----------------|----------|-------------|
e|-----------|----------------|----------|----------------------|
B|-----------|----------------|----------|----------------------|
G|-----------|-------8-4---6--|--4--3----|------6-3--4--6--8--4-|
D|---9-8^--6-|-6-6------------|----------|--4-4-----------------|
A|-----------|----------------|----------|----------------------|
E|-----------|----------------|----------|----------------------|
e|------|---------------------------|------------------------|
B|------|---------------------------|------------------------|
G|------|-------8-4--6--8--6--4--3--|------6-3--4--6--8--6--4|
D|--6---|--6-6----------------------|--4-4-------------------|
A|------|---------------------------|------------------------|
E|------|---------------------------|------------------------|


Fade...
e|------|--------------------------|---6---6----6---6--|
B|------|--------------------------|----------------6--|
G|------|------8--4--6--8--6--4-/-8|--8^--8^---8^---8^-|
D|--6---|--6-6---------------------|-------------------|
A|------|--------------------------|-------------------|
E|------|--------------------------|-------------------|


Bantu aku membencimu
Kuterlalu mencintaimu
Dirimu begitu
Berarti untukku..

Lupakanku dalam tidurmu
Yang pernah mencintaimu
Kau memang tercipta
Bukanlah untukku

Selepas kau pergi
Tinggallah disini kusendiri
Kumerasakan sesuatu
Yang tlah hilang di dalam hidupku

| ^ Bend
| / slide up
| \ slide down
| h hammer-on
| p pull-off
| ~ vibrato
| + harmonic
| x Mute note
=============================================================================

END

+--------------------------------------------------------------------------+

| This file is the author's own work and represents their interpretation |
| of the song. You may only use this file for private study, scholarship, |
| or research. |
+--------------------------------------------------------------------------+


Ultimate-Guitar.Com © 2005


B C#m D#m E E5 F# G#m
variations - click chord images
Transpose chords:
Tuning:
Cool service:
View: Size:
A  A  A
Rating:
Layout:
  • Currently 4/5 Stars.
  • 1
  • 2
  • 3
  • 4
  • 5
 
Accuracy:
  • Currently 3/5 Stars.
  • 1
  • 2
  • 3
  • 4
  • 5
 
click stars to rate
Chordie recommends:
Get acoustic guitar lessons and electric guitar lessons at JamPlay.com
Songbook:
Login to add this song to your songbook
Support the artist
Preview/buy this song
MSN Music
Why this non-profit ad?

 
login to add comments/video/corrections