Chordie logo

Magbalik   Callalily



| Ultimate Guitar Tabs Archive - your #1 source for tabs!               |
| http://www.ultimate-guitar.com/                                       |
|                                                                       |
| Over 200,000 guitar, guitar pro and bass tabs! Also lessons, news,    |
| columns and guitar forums!                                            |


Artist: Callalily
Song: Magbalik


Magbalik                                                                    by:callalily 
                                                              Tabbed By:Marlou ayo"gitarakista"
"maganda ung song na 2 kc maganda ung pinapahiwatig ng kantang 2...sna magus2han 
ntin ang musikang pilipino...plzzz rate...
                                                                            intro:bass
 e[-----------------------------]
 B[-----------------------------]
 G[-----------------------------] 2x...
 D[--------4/6-----------7/9----]
 A[-----2-------------7---------]
 E[--0-------------5------------]
                                                                            Guitar 1
 e[-----7-----------------------7---------------------------------]
 B[--5----7--5--7/9--7--(2x)-5----7--5--7/9/10-9--5--9/10-9-7--5--]
 G[---------------------------------------------------------------]
 D[---------------------------------------------------------------]
 A[---------------------------------------------------------------]
 E[---------------------------------------------------------------]

 e[-----7-----------------------7---------------------------------]
 B[--5----7--5--7/9--7--(2x)-5----7--5--7/9/10-9-10/12------------]
 G[---------------------------------------------------------------]
 D[---------------------------------------------------------------]
 A[---------------------------------------------------------------]
 E[---------------------------------------------------------------]
Guitar 2
 e[---------------------------]
 B[---------------------------]
 G[--1----4----6----7---------] 2x...kasabay n2 ung lead
 D[--2----4----6----7---------]
 A[--2----2----4----5---------]
 E[---------------------------]

Chords:
Verse:e-B-g-a
refrain:F#m-B-F#m-B-F#m-B-A-B
Chorus:e-B-g-a
adlib:e-B-g-a
"sorry qng wala pa ung adlib medyo mahirap kc eh"

END

+--------------------------------------------------------------------------+
| This file is the author's own work and represents their interpretation   |
| of the song. You may only use this file for private study, scholarship,  |
| or research.                                                             |
+--------------------------------------------------------------------------+



Important: The song above is NOT stored on the Chordie server. The original song is hosted at www.ultimate-guitar.com. Chordie works as a search engine and provides on-the-fly formatting. Chordie does not index songs against artists/composers will. To remove this song please click here.

This song is displayed as text-only. Transposing and tuning is only available for chordpro-songs.

Login - add to songbook

Rating click stars to rate

Layout
Accuracy

SHARE PAGE  

You need to log in to post comments