Chordie logo


   Various Artists


                                    HELP ME                                     


                                                                     JOHNNY CASH
Track 1



     Q    E  Q    E  Q       E   E  E  Q.     Q         Q    E  Q    E  Q     
E||-----------------------|------------------------||------------------------|
B||---------------2-------|--3p--2-----2-----------||----------------2-------|
G||----------2------------|--2---------2-----------||*----------2------------|
D||-------2----------2----|---------2---------2----||*-------2----------2----|
A||--0--------------------|--0---------------------||---0--------------------|
D||-----------------------|------------------------||------------------------|


  E   E  E  Q.     Q       Q    E  Q    E  E  E     Q    E  Q    E  E  E   
------------------------|------------------------|------------------------|
--3p--2-----2-----------|---------------2-----2--|---------------2-----2--|
--2---------2-----------|----------2-------------|----------2-------------|
---------2---------2----|-------2----------2-----|-------2----------2-----|
--0---------------------|--0---------------------|--0---------------------|
------------------------|------------------------|------------------------|


  Q    E  Q    E  E  E     E   E  E  Q    E  E  E     Q    E  Q    E  E  E   
---------------2--------|--2h--4-----0-------------|------------------------|
----------0-------0-----|--0------0-------0-----0--|-------0--3----0-----3--|
---------------------1--|--------------------------|------------------------|
-------2----------------|--2-----------------2-----|--2---------------2-----|
------------------------|--------------------------|------------------------|
--2---------------------|--L-----------------------|------------------------|


  Q    E  Q    E  E  E       Q    E  Q    E  Q       Q    E  Q    E  E  E   
-------------------------||-----------------------|------------------------|
-------0--3----0-----0---||---------------2-------|---------------2--------|
------------------------*||----------2------------|----------0-------0-----|
--2---------------2-----*||-------2----------2----|-------2-------------2--|
-------------------------||--0--------------------|--0---------------------|
-------------------------||-----------------------|------------------------|


  Q    E  Q    E  E  E     Q    E  Q    E  Q       Q    E  Q    E  Q     
------------------------|-----------------------|-----------------------|
---------------3--------|---------------3-------|---------------2-------|
----------2----------2--|----------2------------|----------2------------|
-------0----------0-----|-------0----------0----|-------2----------2----|
------------------------|-----------------------|--0--------------------|
--0---------------------|--0--------------------|-----------------------|


  E   E  E  Q.     Q       Q    E  Q    E  E  E     Q    E  Q    E  E  E   
------------------------|----------0-------------|----------0-------------|
--3p--2-----2-----------|-------0-------0-----0--|-------0-------0-----0--|
--2---------2-----------|------------------------|------------------------|
---------2---------2----|------------------2-----|------------------2-----|
--0---------------------|------------------------|------------------------|
------------------------|--2---------------------|--2---------------------|


  Q    E  Q    E  Q       Q    E  Q    E  E  E     Q    E  Q    E  E  E   
-----------------------|------------------------|------------------------|
---------------2-------|---------------2--------|---------------3--------|
----------2------------|----------0-------0-----|----------2----------2--|
-------2----------2----|-------2-------------2--|-------0----------0-----|
--0--------------------|--0---------------------|------------------------|
-----------------------|------------------------|--0---------------------|


  Q    E  Q    E  Q       Q    E  Q    E  Q       E   E  E  Q.     Q     
-----------------------|-----------------------|------------------------|
---------------3-------|---------------2-------|--3p--2-----2-----------|
----------2------------|----------2------------|--2---------2-----------|
-------0----------0----|-------2----------2----|---------2---------2----|
-----------------------|--0--------------------|--0---------------------|
--0--------------------|-----------------------|------------------------|


  Q    E  Q    E  E  E     Q    E  H           W                 
----------0-------------|----------0--------|--L----------------|
-------0-------0-----0--|-------0-----------|-------------------|
------------------------|-------------------|-------------------|
------------------2-----|-------------------|-------------------|
------------------------|-------------------|-------------------|
--2---------------------|--2----------------|--L----------------|


  Q    E  Q    E  Q       E   E  E  Q.     Q       Q    E  Q    E  Q     
-----------------------|------------------------|-----------------------|
---------------2-------|--3p--2-----2-----------|---------------2-------|
----------2------------|--2---------2-----------|----------2------------|
-------2----------2----|---------2---------2----|-------2----------2----|
--0--------------------|--0---------------------|--0--------------------|
-----------------------|------------------------|-----------------------|


  Q    E  Q    Q.        E   E  E  Q    E  E  E     Q    E  Q    E  E  E   
----------------------|--------------------------|------------------------|
---------------2------|--2s--3----------3--------|--3------------3--------|
----------2-----------|------------2----------2--|----------2----------2--|
-------2--------------|--0------0----------0-----|-------0----------0-----|
--0-------------------|--------------------------|------------------------|
----------------------|--------------------------|------------------------|


  Q    E  Q    E  Q       Q    E  Q    E  Q       Q    E  Q    E  Q     
---------------0-------|---------------0-------|-----------------------|
-----------------------|-----------------------|---------------2-------|
----------2-------2----|----------2-------2----|--4-------4------------|
-------2---------------|-------2---------------|-------2----------2----|
--0--------------------|--0--------------------|-----------------------|
-----------------------|-----------------------|--2--------------------|


  E   E  E  Q    E  Q       Q    E  Q    E  Q       Q    E  Q    E  E  E   
-------------------------|-----------------------|------------------------|
--2s--3-----3------------|---------------3-------|---------------2-----2--|
-----------------4-------|----------2------------|----------2-------------|
---------2----------2----|-------2----------2----|-------2----------2-----|
-------------------------|--0--------------------|--0---------------------|
--2----------------------|-----------------------|------------------------|


  Q    E  Q    E  E  E     Q    E  Q    E  E  E     E   E  E  Q    E  E  E   
------------------------|---------------2--------|--2h--4-----0-------------|
---------------2-----2--|----------0-------0-----|--0------0-------0-----0--|
----------2-------------|---------------------1--|--------------------------|
-------2----------2-----|-------2----------------|--2-----------------2-----|
--0---------------------|------------------------|--------------------------|
------------------------|--2---------------------|--L-----------------------|


  Q    E  Q    E  E  E     Q    E  Q    E  E  E     Q    E  Q    E  Q     
------------------------|------------------------|-----------------------|
-------0--3----0-----3--|-------0--3----0-----0--|---------------2-------|
------------------------|------------------------|----------2------------|
--2---------------2-----|--2---------------2-----|-------2----------2----|
------------------------|------------------------|--0--------------------|
------------------------|------------------------|-----------------------|


  Q    E  Q    E  E  E     Q    E  Q    E  E  E     Q    E  Q    E  Q     
------------------------|------------------------|-----------------------|
---------------2--------|---------------3--------|---------------3-------|
----------0-------0-----|----------2----------2--|----------2------------|
-------2-------------2--|-------0----------0-----|-------0----------0----|
--0---------------------|------------------------|-----------------------|
------------------------|--0---------------------|--0--------------------|


  Q    E  Q    E  Q       E   E  E  Q.     Q       Q    E  Q    E  E  E   
-----------------------|------------------------|----------0-------------|
---------------2-------|--3p--2-----2-----------|-------0-------0-----0--|
----------2------------|--2---------2-----------|------------------------|
-------2----------2----|---------2---------2----|------------------2-----|
--0--------------------|--0---------------------|------------------------|
-----------------------|------------------------|--2---------------------|


  Q    E  Q    E  E  E     Q    E  Q    E  Q       Q    E  Q    E  E  E   
----------0-------------|-----------------------|------------------------|
-------0-------0-----0--|---------------2-------|---------------2--------|
------------------------|----------2------------|----------0-------0-----|
------------------2-----|-------2----------2----|-------2-------------2--|
------------------------|--0--------------------|--0---------------------|
--2---------------------|-----------------------|------------------------|


  Q    E  Q    E  E  E     Q    E  Q    E  Q       Q    E  Q    E  Q     
------------------------|-----------------------|-----------------------|
---------------3--------|---------------3-------|---------------2-------|
----------2----------2--|----------2------------|----------2------------|
-------0----------0-----|-------0----------0----|-------2----------2----|
------------------------|-----------------------|--0--------------------|
--0---------------------|--0--------------------|-----------------------|


  E   E  E  Q.     Q       Q    E  Q    E  E  E     Q    E  H         
------------------------|----------0-------------|----------0--------|
--3p--2-----2-----------|-------0-------0-----0--|-------0-----------|
--2---------2-----------|------------------------|-------------------|
---------2---------2----|------------------2-----|-------------------|
--0---------------------|------------------------|-------------------|
------------------------|--2---------------------|--2----------------|


  W                   Q    E  Q    E  Q       Q    E  Q    E  Q     
--L----------------|-----------------------|-----------------------|
-------------------|---------------2-------|---------------2-------|
-------------------|----------2------------|----------2------------|
-------------------|-------2----------2----|-------2----------2----|
-------------------|--0--------------------|--0--------------------|
--L----------------|-----------------------|-----------------------|


  Q    E  Q    E  E  E     Q    E  H           W                 
----------0-------------|----------0--------|--L----------------|
-------0-------0-----0--|-------0-----------|-------------------|
------------------------|-------------------|-------------------|
------------------2-----|-------------------|-------------------|
------------------------|-------------------|-------------------|
--2---------------------|--2----------------|--L----------------|


                                                   ^                  
  Q    E  Q    E  Q       Q    E  E  Q    E  E     W                  
-----------------------|------------------------|--0----------------||
---------------2-------|--3-------3--2----------|--2----------------||
----------2------------|---------------------2--|--2----------------||
-------2----------2----|-------0----------2-----|--2----------------||
--0--------------------|-------------0----------|--0----------------||
-----------------------|--0---------------------|-------------------||




Duration Legend
---------------
W - whole
H - half
Q - quarter
E - 8th
S - 16th
T - 32nd
X - 64th
. - note dotted
|-n-|  - n-tuplets


Tablature Legend
----------------
L - tied note
x - dead note
g - grace note
(n) - ghost note
 - accentuded note
NH - natural harmonic
AH - artificial harmonic
TH - tapped harmonic
SH - semi harmonic
PH - pitch harmonic
h - hammer on
p - pull off
b - bend
br - bendRelease
pb - preBend
pbr - preBendRelease
brb - bendReleaseBend
\n/ - tremolo bar dip
\n - tremolo bar dive
-/n - tremolo bar Release up
/n\ - tremolo bar inverted dip
/n - tremolo bar return
-\n - tremolo bar Release down
S - shift slide
s - legato slide
/ -  slide into from below or out of upwards
\ -  slide into from above or out of downwards
~ - vibrato
W - wide vibrato
tr - trill
TP - tremolo picking
T - tapping
S - slap
P - pop
< - fade in
^ - brush up
v - brush down


Important: The song above is NOT stored on the Chordie server. The original song is hosted at www.ultimate-guitar.com. Chordie works as a search engine and provides on-the-fly formatting. Chordie does not index songs against artists/composers will. To remove this song please click here.

This song is displayed as text-only. Transposing and tuning is only available for chordpro-songs.

Login - add to songbook

Rating click stars to rate

Layout
Accuracy

SHARE PAGE  




You need to log in to post comments