Guitar Tabs, Chords and Lyrics


Falling Off The Face Of The Earth   Neil Young



| Ultimate Guitar Tabs Archive - your #1 source for tabs!               |
| http://www.ultimate-guitar.com/                                       |
|                                                                       |
| Over 200,000 guitar, guitar pro and bass tabs! Also lessons, news,    |
| columns and guitar forums!                                            |


Artist: Neil Young
Song: Falling Off The Face Of The Earth


Neil Young - Falling off the Face of the Earth

tab by Bryce Dillon
email: brucejuice52@hotmail.com (comments and/or suggestions)

INTRO:
   A, A, A, D                    A, A, A, D, A,   G, G...
e--x--x--x--x--------------------x--x--x--x--x----x--x---------|
B--2--2--2--3--------------------2--2--2--3--2----3--3---------|
G--2--2--2--2--------------------2--2--2--3--2----4--4---------|        2X
D--2--2--2--4--------------------2--2--2--4--2----5--5---------|
A-------------------------------------------------5--5---------|
E-------------------------------------------------3--3---------|

VERSES:
   A, A, A, D                    A, A, A, D, A,   G, G...
e--x--x--x--x--------------------x--x--x--x--x----x--x-|
B--2--2--2--3--------------------2--2--2--3--2----3--3-|
G--2--2--2--2--------------------2--2--2--3--2----4--4-|
D--2--2--2--4--------------------2--2--2--4--2----5--5-|
A-------------------------------------------------5--5-|
E-------------------------------------------------3--3-|
I just wanna thank you...for all of the things you've done.

   A, A, A, D                    A, A, A, D, A,   G, G...
e--x--x--x--x--------------------x--x--x--x--x----x--x-|
B--2--2--2--3--------------------2--2--2--3--2----3--3-|
G--2--2--2--2--------------------2--2--2--3--2----4--4-|
D--2--2--2--4--------------------2--2--2--4--2----5--5-|
A-------------------------------------------------5--5-|
E-------------------------------------------------3--3-|
I'm thinkin' about you...    I just wanna send my love.


   B, B, B, E                    B, B, B, E, B    A, A...
e--x--x--x--x--------------------x--x--x--x--x----0--0-|
B--4--4--4--5--------------------4--4--4--5--4----5--5-|
G--4--4--4--4--------------------4--4--4--4--4----6--6-|
D--4--4--4--6--------------------4--4--4--6--4----7--7-|
A-------------------------------------------------7--7-|
E-------------------------------------------------5--5-|
I send my best to you...     That's my message of love.


   B, B, B, E                    B, B, B, E, B    A, A...
e--x--x--x--x--------------------x--x--x--x--x----0--0-|
B--4--4--4--5--------------------4--4--4--5--4----5--5-|
G--4--4--4--4--------------------4--4--4--4--4----6--6-|
D--4--4--4--6--------------------4--4--4--6--4----7--7-|
A-------------------------------------------------7--7-|
E-------------------------------------------------5--5-|
For all the things you did...I can never thankyou enough

CHORUS:
   A, A, A, D                    A, A, A, D, A,   G, G...
e--x--x--x--x--------------------x--x--x--x--x----x--x-|
B--2--2--2--3--------------------2--2--2--3--2----3--3-|
G--2--2--2--2--------------------2--2--2--3--2----4--4-|
D--2--2--2--4--------------------2--2--2--4--2----5--5-|
A-------------------------------------------------5--5-|
E-------------------------------------------------3--3-|
Feels like I'm fallin'... Fallin' of the face of the earth


   G,G, ...          G, E, OPEN
e--x-x-x-x-x-x-x-x-x----------------|
B--3-3-3-3-3-3-3-3-3----------------|
G--4-4-4-4-4-4-4-4-4----------------|
D--5-5-5-5-5-5-5-5-5-5--2--0--------|
A--5-5-5-5-5-5-5-5-5-5--2--0--------|
E--3-3-3-3-3-3-3-3-3-3--0--0--------|
fallin' off the face of the earth..

   A, A, A, D                    A, A, A, D, A,   G, G...
e--x--x--x--x--------------------x--x--x--x--x----x--x-|
B--2--2--2--3--------------------2--2--2--3--2----3--3-|
G--2--2--2--2--------------------2--2--2--3--2----4--4-|
D--2--2--2--4--------------------2--2--2--4--2----5--5-|
A-------------------------------------------------5--5-|
E-------------------------------------------------3--3-|
   fallin.......       fallin' off the face of the earth

   G,G, ...          G, E, open
e--x-x-x-x-x-x-x-x-x----------------|
B--3-3-3-3-3-3-3-3-3----------------|
G--4-4-4-4-4-4-4-4-4----------------|
D--5-5-5-5-5-5-5-5-5-5--2--0--------|
A--5-5-5-5-5-5-5-5-5-5--2--0--------|
E--3-3-3-3-3-3-3-3-3-3--0--0--------|
fallin' off the face of the earth..

BRIDGE:
  D#,D#,D#,D#(LET IT RING) D#,D#,D#,D#,D#,D#,D# (LET IT RING)
e--6--6--6--6-|
B--8--8--8--8-|
G--8--8--8--8-|
D--6--6--6--6-|
A-------------|
E-------------|

G(bar)8x        A(normal)8x
ah...           ah...

Bm,Bm,Bm,Bm,Bm,Bm,Bm,Bm,
e--0-
B--3-
G--4-
D--4-
A--0-
E--0-
ah...

E (STRUM ONCE AND LET RING)
e--0-
B--0-
G--1-
D--2-
A--2-
E--0-
ah...

repeat verses and chorus.

END

+--------------------------------------------------------------------------+
| This file is the author's own work and represents their interpretation   |
| of the song. You may only use this file for private study, scholarship,  |
| or research.                                                             |
+--------------------------------------------------------------------------+



Important: The song above is NOT stored on the Chordie server. The original song is hosted at www.ultimate-guitar.com. Chordie works as a search engine and provides on-the-fly formatting. Chordie does not index songs against artists/composers will. To remove this song please click here.

This song is displayed as text-only. Transposing and tuning is only available for chordpro-songs.

Login - add to songbook

Rating click stars to rate

Layout
Accuracy

SHARE PAGE  




You need to log in to post comments