eToCache5 = ""; ?> Sail To The Moon by Radiohead - guitar chords, guitar tabs and lyrics - chordie

Sail To The Moon

Radiohead

 4/43/42/47/4
   W                  Q    E  E Q      E  E E  E    H       H       H.
|------------------|----------------|-------------|--------------------------|
|-^9---------------|------10----9---|--8----------|--------------------------|
|-^9---------------|----------------|--9-10-9-----|--------------------------|
|------------------|-11------11-----|-10------10\-|-3------------------------|
|-^0---------------|----------------|-------------|--------------------------|
|------------------|----------------|-------------|--------------------------|


 3/43/42/46/4
   H.            E  E  E  E Q      E.  S  +E  E    Q    +E. S H       H
|--------------|----------------|---------------|-----------------------------|
|-^9-----------|-9----10----9---|--8------------|-----------------------------|
|-^9-----------|----------------|--9--10-(10)-9-|-----------------------------|
|--------------|---11----11-----|-10------------|-10---(10)-------------------|
|-^0-----------|----------------|---------------|-----------8-8-------8-------|
|--------------|----------------|---------------|-----------------------------|


 2/43/42/45/4
   H         E  E  E  E Q      E  E E  E    W               Q
|----------|----------------|-------------|----------------------|
|-^9-------|-9----10----9---|--8----------|----------------------|
|-^9-------|----------------|--9-10-9-----|----------------------|
|----------|---11----11-----|-10------10\-|-3--------------------|
|-^0-------|----------------|-------------|----------------------|
|----------|----------------|-------------|----------------------|


 4/4
  Q   Q   Q   E E   E E E E E E E E   E E Q   Q   E E   E E E E E E E E
|-----4---5---7---|-----------------|-----4---5---7---|-----------------|
|-5-------------5-|---5-----6p5---5-|---5-----------5-|---5-----6p5---5-|
|-----7---5-------|-5---7h9-----5---|-----7---5---7---|-5---7h9-----5---|
|-----------------|-----9---7-------|-----------------|-----9---7-------|
|-----------------|-----------------|-----------------|-----------------|
|-----------------|-----------------|-----------------|-----------------|


1st Verse:

 4/42/4
  E E Q   Q   E E   E E E E E E E E   E E Q   Q   E E   E E E E
|-----4---5---7---|-----------------|-----4---5---7---|---------|
|---5-----------5-|---5-----6p5---5-|---5-----------5-|---5-----|
|-----7---5---7---|-5---7h9-----5---|-----7---5---7---|-5---7h9-|
|-----------------|-----9---7-------|-----------------|-----9---|
|-----------------|-----------------|-----------------|---------|
|-----------------|-----------------|-----------------|---------|

...I sucked...

 3/44/4
  E. S S S E S S S  S   E. S E S S E S S S S E
|------------8--------|------------7-----------|
|------8-------8------|------8-------8---------|
|----9---9-------9----|----9---9-------9-----5-|
|------------------10-|----------9---------7---|
|---------------------|------------------8-----|
|-8-------------------|-7----------------------|


E E Q Q E E E E E E E E E E
|-----4---5---7---|-----------------|
|---5-----------5-|---5-----6p5---5-|
|-----7---5---7---|-5---7h9-----5---|
|-----------------|-----9---7-------|
|-----------------|-----------------|
|-----------------|-----------------|


2nd Verse:
 2/4
  E E Q   Q   E E   E E E E E E E E   E E Q   Q   E E   E E E E
|-----4---5---7---|-----------------|-----4---5---7---|---------|
|---5-----------5-|---5-----6p5---5-|---5-----------5-|---5-----|
|-----7---5---7---|-5---7h9-----5---|-----7---5---7---|-5---7h9-|
|-----------------|-----9---7-------|-----------------|-----9---|
|-----------------|-----------------|-----------------|---------|
|-----------------|-----------------|-----------------|---------|

...I was dropped from...

 3/4
  S  S  S S S S S S S S S S   S S S S S S S S S S E
|-------------8-------------|-----------------7-----|
|-----------8---8---8---8---|---------8---8-----8---|
|---------9-------9---9---9-|-------9---9---9-----9-|
|------10-------------------|-----9---------------9-|
|---10----------------------|---7-------------------|
|-8-------------------------|-7---------------------|


Bridge:
 5/4
  E E E E E E E  E  E E   E E  E  S T T E  S T T E  E  E  E
|-----------------------|------------------------------------|
|-----------------------|-8----------------------------------|
|-6-8-8p6-6-8-9-11-11-9-|-5h7--7--5-5h7p5--4-4h5p4--2--2--0--|
|-6-6-6---6---9-----9---|------------------------------------|
|-----------------------|------------------------------------|
|-----------------------|------------------------------------|


E E E E E E E E E E E E E S T T E S T T E E E E
|-----------------------|------------------------------------|
|-------------0-----0---|-8----------------------------------|
|-6-8-8p6-6-8-9-11-11-9-|-5h7--7--5-5h7p5--4-4h5p4--2--2--0--|
|-6---6---6-------------|------------------------------------|
|-----------------------|------------------------------------|
|-----------------------|------------------------------------|


3rd Verse:
 4/4
PM* PM PM PM
Q S S S S +E S S S S S S +E S S S S S S S S S S Q
|-----------------------------|---------------------------------|
|-----------------------------|-----------------------------0---|
|-----7-5---5-(5)---5-7-5---5-|-(5)---5-7--5-7--5-7--5-7--5-2---|
|---------7-------7-------7---|-----7-----------------------3---|
|-0---------------------------|---------------------------------|
|-----------------------------|---------------------------------|

...Maybe you'll...

*when palm muting in this song, lay right hand on the string above the
middle pick-up to almost damp the strings entirely.

 2/4
                                  PM   PM   PM
Q S S S S +Q S S S S S S S S S S E
|---------------------------|------------------|
|---------------------------|-6-5--------------|
|-----7-5---5-(5)---4h5---5-|-----7--5-7--5----|
|---------7-------------7---|---------------7--|
|-0-------------------------|------------------|
|---------------------------|------------------|


 3/44/4
 Gtr I                         
S S S S S S S S S S S S Q S S S S S S S S S S E
|-------------------8--------|-------------------7------------------------|
|-----------8---8-----8------|-----------------8------8-------------------|
|---------9---9---9-----9----|--------------9-------9-------9--------5----|
|------10--------------------|------------9--------------9--------7-------|
|---10--------------------10-|---------------------------------8----------|
|-8--------------------------|-7------------------------------------------|

|
|Gtr II
| S S S S S S S S S S S S S S S S S S S S S S S S S S S S
|----------------------------|--------------------------------------------|
|-6-----6---6---6---6---6----|----8----8----8----8----8----10----10----10-|
|----9----9---9---9---9----9-|-11---11---11---11---11---11----12----12----|
|----------------------------|--------------------------------------------|
|----------------------------|--------------------------------------------|
|----------------------------|--------------------------------------------|


Gtr I
PM
Q S S E Q S S S S +E E S S S S Q
|------------------------|-------1-----------|
|------------------------|-------3-1-----0---|
|-----7-5---5---7-5----5-|-(5)-------2---2---|
|-------------------7----|-----2-------3-3---|
|------------------------|-------------------|
|------------------------|-------------------|


4th Verse:
 4/43/44/42/4
                                          PM                               PM
Q Q Q E E E E Q E E Q S S S S +E S S S S S S +Q S S E
|-----4---5---7---|-----------0-|------------------------------|--------------|
|---------------5-|---5---------|------------------------------|--------------|
|-----7---5---7---|-5---4---2---|-----7-5----5-(5)---5-7-5---5-|-(5)---7-5----|
|-----------------|-------------|---------7--------7-------7---|-----------7--|
|-0---------------|-------------|------------------------------|--------------|
|-----------------|-------------|------------------------------|--------------|

...Or in the flood you'll...

 3/44/4
 Gtr I                           
S S S S S S S S S S S S S S S S S S S S S S S S S S S S

|---------------------8--------|----------------------7---------------------|
|--------------8--------8------|---------8--7h8---------8-------------------|
|---------9------9--------9----|-------9---------9---------9-----------5----|
|------10---10-----10-------10-|----9--------------9----------9-----7-----7-|
|---10-------------------------|---------------------------------8----------|
|-8----------------------------|--7-----------------------------------------|

|
|Gtr II
| S S S S S S S S S S S S S S S S S S S S S S S S S S S S
|------------------------------|--------------------------------------------|
|-6-----6----6---6----6---6----|----8----8----8----8----8----10----10----10-|
|----9----9----9----9---9----9-|-11---11---11---11---11---11----12----12----|
|------------------------------|--------------------------------------------|
|------------------------------|--------------------------------------------|
|------------------------------|--------------------------------------------|


Gtr I
 2/4
  Q   S S S S +E  S S S S S S   +E  S S S S S S
|-----------------------------|---------5-------|
|---------------------6-5-----|-----------5-----|
|-----7-5-----------5-------5-|-(5)---5-----5---|
|-7---------7-(5)-7-------7---|-----7-----------|
|-----------------------------|-----------------|
|-----------------------------|-----------------|


 3/44/4
  S  S  S S  S S S  S S S S  S   S S S S S S S S S S S S S S S S
|---------------------8--------|---------------------------------|
|--------------8--------8------|---------0-------0h1---------1---|
|---------9------9--------9----|-------0---0---------2-----2---2-|
|------10---10-----10-------10-|-----2-------2---------2-3-------|
|---10-------------------------|---2-----------2-----------------|
|-8----------------------------|-0-------------------------------|


 2/4
  Q   S S E E. S S S S S   +E  S S S S S S
|------------------------|-----------------|
|----------------0---0---|---------6-5-----|
|-----7-5---5--4---5---5-|-(5)-5-------5---|
|------------------------|---------------7-|
|------------------------|-----------------|
|------------------------|-----------------|


 3/42/4
  S  S  S S  S S S  S S S S  S   S S S S S S S S
|---------------------8--------|-----------------|
|--------------8--------8------|---------4-------|
|---------9------9--------9----|-------4---4-----|
|------10---10-----10-------10-|-----6-------6---|
|---10-------------------------|---7-----------7-|
|-8----------------------------|-0---------------|


Outro: (piano transcription for guitar)
*I don't suppose you have 29 frets, but just use an octaver to reach the pitch

 5/4
    Q   E E E E E E E E   Q   E E E E  Q    E E
||--3---3---3---3---3---|-7---7---7---11---------||
||o-4---4---4---4---4---|-8---8---8---12---12---o||
||--5---5---5---5---5---|-9---9---9---12---12----||
||----------------------|------------------------||
||o---------------------|-----------------------o||
||--4-----4---4---4---4-|-8-----8---8--0------0--||


 4/46/4
   Q    Q    Q    Q    Q      Q    Q    Q    Q      Q    Q    Q    Q   Q   Q

|-15---15---15---15---15---|-15---15---23---23---|-27---27----------------27--|
|-17---17---17---17---17---|-17---17---24---24---|-28---28---28-------28------|
|-17---17---17---17---17---|-17---17---24---24---|-29---29---29---29----------|
|--------------------------|---------------------|----------------------------|
|--------------------------|---------------------|----------------------------|
|--------------------------|-----------24---24---|-28-------------------------|


(Brush the Cobwebs out of the Sky.)

I sucked
The moon
I spoke
Too Ssoon
And how much
did it cost?
I was dropped from
Moonbeams
And sailed
On shooting stars
Maybe you'll
be president
But know
right from wrong
Or in the flood you'll
build an Ark
And sail us to the moon

- 12th /September /06
Just mail me at Maitinin@gmail.com with questions, comments and corrections!

END

+--------------------------------------------------------------------------+

| This file is the author's own work and represents their interpretation |
| of the song. You may only use this file for private study, scholarship, |
| or research. |
+--------------------------------------------------------------------------+


Ultimate-Guitar.Com © 2005


variations - click chord images
Transpose chords:
Tuning:
Cool service:
View: Size:
A  A  A
Rating:
Layout:
  • Currently 0/5 Stars.
  • 1
  • 2
  • 3
  • 4
  • 5
 
Accuracy:
  • Currently 0/5 Stars.
  • 1
  • 2
  • 3
  • 4
  • 5
 
click stars to rate
Chordie recommends:
Check out JamPlay.com for online video guitar lessons
Songbook:
Login to add this song to your songbook
Support the artist
Preview/buy this song
MSN Music
Why this non-profit ad?

 
login to add comments/video/corrections