Guitar Tabs, Chords and Lyrics


Here We Are Nowhere  Stiff Little Fingers



[D]Friday night's here, w[A]hat's the scene?
[D]Nothing to do, y'kno[A]w what I mean?
[G]Nothing on the telly, there i[A]s no late-night [D]show   [Bm]
[G]No shows in town, there is no[A] place to [D]go    [Bm]
[G]Here we are nowhere, now[A]here left to g[D]o
[D]Is it a crime t[A]o be young
[D]Cos every time we ha[A]ve some fun
[G]They put us  down and t[A]ell us that we're w[D]rong  [Bm]
[G]Every time they s[A]ing the same old s[D]ong  [Bm]
[G]Here we are nowhere ma[A]ybe that's where we b[D]elong
[F#m]You know it's not but what d[Bm]o we do
[F#m]Don't look at me now I'm loo[Bm]king at you
[F#m]And sitting there won't ch[Bm]ange a thing
[G]Must we only wait and s[A]ee what the future will br[D]ing
Solo
(Over Verse and Chorus chords)

------------10-10-10--------5-5--5-5--------10-10--10-10-----5--5-5--5-5------|
-10----10---10-10-10--------5-5--5-5--------10-10--10-10-----5--5-5--5-5------|
-12b----------------------6------------/11-------------------6----------------|
------------------------------------------------------------------------------|
------------------------------------------------------------------------------|
------------------------------------------------------------------------------|
------3---------------5---------10--10--------------------3----------5--------|
-3--3---3--------5--5---5-5/10------10-----3-3-3-3------3---3------5---5------|
-4---------4-----6--------6/11-------------4-4-4-4----4-------4-/6-------6----|
------------------------------------------------------------------------------|
------------------------------------------------------------------------------|
------------------------------------------------------------------------------|
-----10-10--------2----------------------|
-----10-10--------3----------------------|
-/11--------------4----------------------|
------------12---------------------------|
-----------------------------------------|
-----------------------------------------|



[G]Here we are nowhere, now[A]here left to g[D]o
[G]Here we are nowhere, now[A]here left to g[D]o
*Tabbed by grouch593*

END

+--------------------------------------------------------------------------+

| This file is the author's own work and represents their interpretation |
| of the song. You may only use this file for private study, scholarship, |
| or research. |
+--------------------------------------------------------------------------+


Ultimate-Guitar.Com © 2005

Important: The song above is NOT stored on the Chordie server. The original song is hosted at www.ultimate-guitar.com. Chordie works as a search engine and provides on-the-fly formatting. Chordie does not index songs against artists'/composers' will. To remove this song please click here.

Text color:
Chord color:
Chord grids: 
Font size:    
Page size: 

A Bm D F#m G
variations - click chord images

Login - add to songbook

Transpose chords

Tuning

Rating click stars to rate

Layout
Accuracy

SHARE PAGE  




You need to log in to post comments