G
e|-3-------|
B|-3-------|
G|-0-------|
D|-0-------|
A|-2-------|
E|-3-------|                                    

 Dm7
e|-1-------|
B|-1-------|
G|-2-------|
D|-0-------|
A|---------|
E|---------|

 C
e|-0-------|
B|-1-------|
G|-0-------|
D|-2-------|
A|-3-------|
E|---------|

 G7
e|-1-------|
B|-0-------|
G|-0-------|
D|-0-------|
A|-2-------|
E|-3-------|

 G7sus4
e|-1-------|
B|-1-------|
G|-0-------|
D|-0-------|
A|---------|
E|---------|

 D
e|-2-------|
B|-3-------|
G|-2-------|
D|-0-------|
A|---------|
E|---------|

 G9
e|-1-------|
B|-0-------|
G|-2-------|
D|-0-------|
A|---------|
E|---------|


Verse:
 GDm7GCmD7
  Look like a woman        
 GDm7GCDm7
  Dressed like a lady         
 GDm7GCDm7
  Talk like a baby         
 GDm7GC
  Loves like a woman        

Chorus:
 GG7C
  Oo   (oo you)    oh!  
 G7sus4G7CD
  Oo,      oo, you     

Verse:
 GDm7GCmD7
  Walk like a woman        
 GDm7GCDm7
  Sing like a blackbird      
 GDm7GCDm7
  Eat like a hungry       
 GDm7GCDm7
  Cook like a woman        

Chorus:
 GG7C
  Oo   (oo you)    oh!  
 G7sus4G7CDG9
  Oo,      oo, you        

Over and Out//ALAX

END

+--------------------------------------------------------------------------+

| This file is the author's own work and represents their interpretation |
| of the song. You may only use this file for private study, scholarship, |
| or research. |
+--------------------------------------------------------------------------+


Ultimate-Guitar.Com © 2005


C D Dm7 G G7 G7sus4 G9
variations - click chord images
Transpose chords:
Tuning:
Cool service:
View: Size:
A  A  A
Rating:
Layout:
  • Currently 0/5 Stars.
  • 1
  • 2
  • 3
  • 4
  • 5
 
Accuracy:
  • Currently 0/5 Stars.
  • 1
  • 2
  • 3
  • 4
  • 5
 
click stars to rate
Chordie recommends:
Learn how to play guitar at JamPlay.com
Songbook:
Login to add this song to your songbook
Support the artist
Preview/buy this song
MSN Music
Why this non-profit ad?

 
login to add comments/video/corrections