Chordie logo

Slow Dancing In A Burning Room   John Mayer



| Ultimate Guitar Tabs Archive - your #1 source for tabs!               |
| http://www.ultimate-guitar.com/                                       |
|                                                                       |
| Over 200,000 guitar, guitar pro and bass tabs! Also lessons, news,    |
| columns and guitar forums!                                            |


Artist: John Mayer
Song: Slow Dancing In A Burning Room


-------------------------------------------------------------------------------
			     Slow Dancing in a Burning Room - John Mayer
-------------------------------------------------------------------------------
Tabbed by:sbstrat88
Email:stratocaster_seventies@yahoo.com

Tuning:standard


INTRO
e|------------------x----------------------------------------------------------|
B|------------------x-----------------5----------------------------------------|
G|-----------9------x-----9---8---6---4h6--4-----------------------------------|
D|------------------x-----11--9---7---6-------6--------------------------------|
A|--9/11------------x----------------------------------------------------------|
E|------------------x----------------------------------------------------------|

e|------------------x--------------------------------------------------------|
B|------------------x-------------------5------------------------------------|
G|-----------9------x------9----8---6---4------------------------------------|
D|------------------x------11---9---7---6----4-------------------------------|
A|--9/11------------x----------------------------7---------------------------|
E|------------------x--------------------------------------------------------|

VERSE
"IT'S NOT A SILLY LITTLE MOMENT..."
"I WAS THE ONE YOU ALWAYS DREAMED OF..."
e|---0---------0---------0---------0---------0----------0--------------------|
B|---0---------0---------0---------0---------0----------0--------------------|
G|---9---------9---------9---------9---------9----------9---------X2---------|
D|---9---------9---------6---------9---------9----------9--------------------|
A|---X---------7---------7---------X---------9----------7--------------------|
E|---9---------0---------0---------9---------0----------0--------------------|

CHORUS                     FAST CHORD CHANGE
"WERE GOIN' DOWN.."               \/
e|----0-----0-----0-----0----0--0--0--0--------------------------------------|
B|----0-----0-----0-----0----0--0--0--0--------------------------------------|
G|----8-----9-----9-----8----9--9--9--9--------------------------------------|
D|----9-----6-----9-----9----9--9--6--9--------------------------------------|
A|----X-----7-----9-----X----7--9--7--X--------------------------------------|
E|----9-----0-----0-----9----0--0--0--9--------------------------------------|

"MY DEAR WERE SLOW DANCING..."

e|--0----0----0--------------------------------------------------------------|
B|--0----0----0--------------------------------------------------------------|
G|--9----9----6--------------------------------------------------------------|
D|--9----9----9--------------------------------------------------------------|
A|--X----7----7--------------------------------------------------------------|
E|--9----0----0--------------------------------------------------------------|

FILL

e|---7H9/12--12--11--9--7--9--7----7H9/12--12--11--9--7----------------------|
B|------------------------------9------------------------9--7----------------|
G|-------------------------------------------------------------9-------------|
D|---------------------------------------------------------------------------|
A|---------------------------------------------------------------------------|
E|---------------------------------------------------------------------------|


| /  slide up

| \  slide down
| h  hammer-on

| x  Mute note

END

+--------------------------------------------------------------------------+
| This file is the author's own work and represents their interpretation   |
| of the song. You may only use this file for private study, scholarship,  |
| or research.                                                             |
+--------------------------------------------------------------------------+



Important: The song above is NOT stored on the Chordie server. The original song is hosted at www.ultimate-guitar.com. Chordie works as a search engine and provides on-the-fly formatting. Chordie does not index songs against artists/composers will. To remove this song please click here.

This song is displayed as text-only. Transposing and tuning is only available for chordpro-songs.

Login - add to songbook

Rating click stars to rate

Layout
Accuracy

SHARE PAGE  

You need to log in to post comments