eToCache5 = ""; ?> Prairie Wind by Neil Young - guitar chords, guitar tabs and lyrics - chordie

Prairie Wind

Neil Young

-------------------------

-------------------------
E:-----------------------------------------------------|
B:-----------------------------------------------------|
G:-------7--5------------------------------------------|
D:-----------7-5---5-------3---------------------------|
A:---------------8---8-5-3---5-------------------------|
E:-----------------------------------------------------|
E:--------6---\----8-8-8---/----6--6-6-6---------------|
B:--------6---\----8-8-8---/----6--6-6-6--8-6----------|
G:-----------------------------------------------------|
D:-----------------------------------------------------|
A:-----------------------------------------------------|
E:-----------------------------------------------------|
E:-----------------------------------------------------|
B:-----------------------------------------------------|
G:-------7-7-7-7-7-7-----------------------------------|
D:-------------------7-h9-h10-7------------------------|
A:-----------------------------------------------------|
E:-----------------------------------------------------|
E:-----------------------------------------------------|
B:-----------------------------------------------------|
G:-------7---5-----------------------------------------|
D:-------------7-5-------------------------------------|
A:-----------------8--5--------------------------------|
E:-----------------------------------------------------|
E:-----------------------------------------------------|
B:-----------------------------------------------------|
G:------6-/-7---7-7-5----------------------------------|
D:--------------------7-5---5-3------------------------|
A:------------------------8----------------------------|
E:-----------------------------------------------------|
E:-----------------------------------------------------|
B:-----------------------------------------------------|
G:------7--5---5---------------------------------------|
D:-----------7-----5-------3---------------------------|
A:---------------8---8-5-3---5-------------------------|
E:-----------------------------------------------------|
E:--------6---\----8--8--8-8--/---6--------------------|
B:--------6---\----8--8--8-8--/---6-8------------------|
G:-----------------------------------------------------|
D:-----------------------------------------------------|
A:-----------------------------------------------------|
E:-----------------------------------------------------|
E:-----------------------------------------------------|
B:------6--/--7----------------------------------------|
G:------6--/--7-7-5--5---------------------------------|
D:---------------------7---5---------------------------|
A:-----------------------5-----------------------------|
E:-----------------------------------------------------|
E:-----------------------------------------------------|
B:-----------------------------------------------------|
G:--------7-5-7-5-7-5-7-5------------------------------|
D:----------------------------3------------------------|
A:------------------------5-3---5----------------------|
E:-----------------------------------------------------|

 GmFm
Gm / / / / Fm / / / / Riff 3

 GmFm
Verse:
 DmGmFm
 Tryin to remember what my daddy said           
 DmGmFm
 Before to much time took away his head           
 DmGmFm
 He Said were goin back and I´ll show you what I´m talking about          
 Dm
 Goin back to Cypress river back to the old farm house
Gm Fm Riff 1
Chorus:
Dm Riff 1
Prairie wind blowin trough my head
 DmDm
 Prairie wind blowin trough my head   
Dm Riff 1
Tryin to remember what my daddy said
 GmDm
 Prairie wind blowin trough my head   

Verse:
 DmGmFm
 I try to tell the people but they never hear a word I say        
 DmGmFm
 They say there´s nothin' out there but wheatfields anyway      
 DmGmFm
 Just the farmer´s wife hangin laundry in her backyard         
 Dm
 Out on the prairie where the winds blow long and hard
Gm Fm Riff 1

Chorus:
Dm Riff 4
Prairie wind blowin trough my head
Dm Riff 1
Prairie wind blowin trough my head
 DmDm
 Tryin to remember what my daddy said  
 GmFmDmGmFmDmGmFm
 Prairie wind blowin trough my head                        

Verse:
Dm Dm Gm Fm x2
Late at night light dancin in the northern sky
Dm Dm Gm Fm x2
Like the indian spirits tryin show you how to fly
Dm Dm Gm Fm x2

You can see in to the future but it may be a´mirage
Dm Gm Fm Riff 1
Like a new car sittin there in your old garage

Chorus:
Dm Riff 5
Prairie wind blowin trough my head
Dm Riff 6
Prairie wind blowin trough my head
Dm Riff 1
Prairie wind blowin trough my head
 DmFmGmDmGmFmDmGmFm
 Tryin to remember what my daddy said                    

Verse:
 DmGmFm
 There´s a place on the prairie where evil and goodness play     
 DmGmFm
 Daddy told me all about it but I dont remember what he said   
 DmGmFm
 Might be afternoon and it might be the dead of night     
 Dm
 But you´ll know when you see it cause it sure is hell of a sight
Gm Fm Riff 1

Chorus:
Dm Riff 7
Prairie wind blowin trough my head
 GmFmDm
 Prairie wind blowin trough my head   
 GmFmDm
 Prairie wind blowin trough my head   
 DmDm
 Prairie wind blowin trough my head   
 DmDm
 Prairie wind blowin trough my head   
 GmFmDm
 Prairie wind blowin trough my head (Prairie wind blowin trough....)
 GmFmDm
 Prairie wind blowin trough my head (Tryin to remember what my....)
 GmFmDm
 Prairie wind blowin trough my head (Before to much time took....)
 GmFmDm
 Prairie wind blowin trough my head (He Said were goin back....)
 GmFmDm
 Prairie wind blowin trough my head   
 GmFmDm
 Prairie wind blowin trough my head (Goin back to Cypress river....)
Gm Fm Riff 1
Prairie wind blowin trough my head
Dm Riff 8
Prairie wind blowin trough my head
Dm Riff 9
Prairie wind blowin trough my head
Dm Riff 1
Prairie wind blowin trough my head

fade and out.......

END

+--------------------------------------------------------------------------+

| This file is the author's own work and represents their interpretation |
| of the song. You may only use this file for private study, scholarship, |
| or research. |
+--------------------------------------------------------------------------+


Ultimate-Guitar.Com © 2005


Dm Fm Gm
variations - click chord images
Transpose chords:
Tuning:
Cool service:
View: Size:
A  A  A
Rating:
Layout:
  • Currently 0/5 Stars.
  • 1
  • 2
  • 3
  • 4
  • 5
 
Accuracy:
  • Currently 0/5 Stars.
  • 1
  • 2
  • 3
  • 4
  • 5
 
click stars to rate
Chordie recommends:
Learn to play guitar with video-based, online guitar lessons at JamPlay.com
Songbook:
Login to add this song to your songbook
Support the artist
Preview/buy this song
MSN Music
Why this non-profit ad?

 
login to add comments/video/corrections