"yes"; ?> Your Touch by Black Keys - guitar chords, guitar tabs and lyrics - chordie

Your Touch

Black Keys

-----------------------------------------------------------------------------

-----------------------------------------------------------------------------
e|--------------------------------|
B|--------------------------------|
G|--------------------------------|Play this a few times, then:
D|--------------------------------|
A|--------3-0-55555-3-5-3(b)~~----|
E|--5-3-0-------------------------|

 ADCCGA
e|-----------------------------------------|
B|--2----------------------------------2---|
G|--2--- wait 3 beats, then --7--5-5-0-2---| This continues throughout
D|--2-------------------------7--5-5-0-2---| the verse, then for the chorus:
A|--0-------------------------5--3-3---0---|
E|-----------------------------------------|


Riff 2

 EACADCCGA
e|-------------------------------------------------|
B|-------2----2---------2-----2----2---------2-----| Repeated, and then back
G|-------2----2-7-5-5-0-2-----2----2-7-5-5-0-2-----| to Riff 1 for the verse.
D|-------2----2-7-5-5-0-2-----2----2-7-5-5-0-2-----|
A|--7\---0-3b-0-5-3-3---0-7\--0-3b-0-5-3-3---0-7\--|
E|-------------------------------------------------|


I like to stick a little solo in - nothing fancy - bluesey pentatonic based
on the 5th fret does the trick.

That's it - easy to play, sounds great through a les paul with the gain right up.

In the words of the almighty Tap: 'Have a good time. All the time'.

| \ slide down
| b bend
| ~ vibrato
=============================================================================

END

+--------------------------------------------------------------------------+

| This file is the author's own work and represents their interpretation |
| of the song. You may only use this file for private study, scholarship, |
| or research. |
+--------------------------------------------------------------------------+


Ultimate-Guitar.Com © 2005


A C D E G
variations - click chord images
Transpose chords:
Tuning:
Cool service:
View: Size:
A  A  A
Rating:
Layout:
  • Currently 5/5 Stars.
  • 1
  • 2
  • 3
  • 4
  • 5
 
Accuracy:
  • Currently 5/5 Stars.
  • 1
  • 2
  • 3
  • 4
  • 5
 
click stars to rate
Chordie recommends:
Learn to play this song & others via video guitar lessons at JamPlay.com
Songbook:
Login to add this song to your songbook
Support the artist
Preview/buy this song
MSN Music
Why this non-profit ad?

 
login to add comments/video/corrections