When In Rome

Nickel Creek


| Ultimate Guitar Tabs Archive - your #1 source for tabs! | | http://www.ultimate-guitar.com/ | | | | Over 200,000 guitar, guitar pro and bass tabs! Also lessons, news, | | columns and guitar forums! |
Artist: Nickel Creek Song: When In Rome
Tabbed By: Ben "The Man" Muir
intro:
e---3-------| b---3-------| g---0-(2)---| d---0-------| a---0-------| e-----------|
1st verse: (strum once)
where can a sick man go when he cant
--3-----------------------------0-------------| --3-------------3-------------3-3-------------| --2-------------2-------------2-2-------------| --0-------------0-------------0-0-------------| --0-------------0-----------------------------| ----------------------------------------------|
choke down the medicen the old doc knows
--------------------------------------------------| -------------------------------------------3------| -------------------------------------------2------| -------------------------------------------0------| -------------------------------------------0------| --------------------------------------------------|
A specialist came to town, but he stays -----5------------------------------------3-------| -----3------------------------------------3-------| -----3------------------------------------3-------| -----5------------------------------------5-------| --------------------------------------------------| --------------------------------------------------|
at home saying no one knows ----------------------5----------| ----------------------3----------| ----------------------3----------| ----------------------5----------| ---------------------------------| ---------------------------------|
so I don't Honey, when in Rome ---------------------------3-----| ---------------------------3-----| ---------------------------3-----| ---------------------------5-----| ---------------------------------| ---------------------------------|
(repeat into, just strum tha chord over and over)
2nd verse: (just keep on strumming)
where can a teacher go.....
---3-----5------3--------5--------------| ---3-----3------3--------3--------------| ---2-----2------2--------2--------------| ---0-----0------0--------0--------------| ---0-----0------0--------0--------------| ----------------------------------------|
hey those books you gave us..
----------------5------------------| ----------------3------------------| ----------------3------------------| ----------------5------------------| ----------------0------------------| -----------------------------------|
look good on the shelves at home
---------3---------------5--------------3-------| ---------3---------------3--------------3-------| ---------3---------------3--------------3-------| ---------5---------------5--------------5-------| ---------0---------------0--------------0-------| ------------------------------------------------|
And they'll burn warm in the fireplace
-----------------5---------------------3-------| -----------------3---------------------3-------| -----------------3---------------------3-------|
-----------------5---------------------5-------| -----------------0---------------------0-------| -----------------------------------------------|
Teacher, when in Rome
---------------5--------------------| ---------------5--------------------| ---------------7--------------------| ---------------7--------------------| ---------------0--------------------| ------------------------------------|
bridge:
Grab a blanket, sister We'll make
-----------0----------3----------| -----------3----------3----------| -----------2----------3----------| -----------3----------5----------| -----------1----------5----------| ----------------------3----------|
we'll make smoke signals bring...
--------------5----------------------| --------------5----------------------| --------------6----------------------| --------------7----------------------| --------------7----------------------| --------------5----------------------|
(repeat thoughs three chords)
then play..
from one another i wonder if were..
---------------1---------------------| ---------------3---------------------| ---------------3---------------------| ---------------3---------------------| ---------------1---------------------| ---------------1---------------------|
stuck, in rome
-0----------------3-----| -1----------------3-----| (repeat intro) -0----------------2-----| -2----------------0-----| -3----------------0-----| -0----------------------|
3rd verse:
Where can a dead man go The question with an answer only dead men know But I'm
gonna bet they never really feel at
---------5--------3-------5-------| ---------3--------3-------3-------| ---------3--------3-------3-------| ---------5--------5-------5-------| ----------------------------------| ----------------------------------|
home, if they spend a life time learning
---3---------------5--------------------3-------| ---3---------------3--------------------3-------| ---3---------------3--------------------3-------| ---5---------------5--------------------5-------| ---0---------------0--------------------0-------| ------------------------------------------------|
how to live in rome
-----------------------------| -----------5-----------------| -----------7-----------------| -----------7-----------------| -----------------------------| -----------------------------|
(repeate the intro and the bridge)
END
+--------------------------------------------------------------------------+ | This file is the author's own work and represents their interpretation | | of the song. You may only use this file for private study, scholarship, | | or research. | +--------------------------------------------------------------------------+
Ultimate-Guitar.Com © 2005

variations - click chord images
Transpose chords:
Tuning:
Cool service:
View: Size:
A  A  A
Rating:
Layout:
  • Currently 0/5 Stars.
  • 1
  • 2
  • 3
  • 4
  • 5
 
Accuracy:
  • Currently 0/5 Stars.
  • 1
  • 2
  • 3
  • 4
  • 5
 
click stars to rate
Chordie recommends:
Get acoustic guitar lessons and electric guitar lessons at JamPlay.com
Songbook:
Login to add this song to your songbook
Support the artist
Preview/buy this song
MSN Music
Why this non-profit ad?

 
login to add comments/video/corrections