eToCache5 = ""; ?> Uncle Jonny by Killers - guitar chords, guitar tabs and lyrics - chordie

Uncle Jonny

Killers

eb|---------------------------------------------------|

bb|--0-0-0-0-0-0h2/3-5-0-0h2/3-5-5-5-5-5-3\2/3\2/3-2--|
gb|--4-4-4-4-4-----4-4-4-----4-4-4-4-4-4-4-4-4-4-4-4--|
db|---------------------------------------------------|
ab|---------------------------------------------------|
Eb|---------------------------------------------------|
eb|-----17-14------------------17-14-------------------17-14----------------|
bb|--------------17-15------------------17-15-------------------17-15---15--|
gb|--16-------16-------14--16--------16-------14----16-------16------16-----|
db|-------------------------------------------------------------------------|
ab|-------------------------------------------------------------------------|
Eb|-------------------------------------------------------------------------|
eb|---17-14-----------------17-14-----------------|
bb|-------------17-15---15-----------17-15--------|
gb|---------16-------16-----------16-------14-16--|
db|-----------------------------------------------|
ab|-----------------------------------------------|
Eb|-----------------------------------------------|
eb|--17-14-------------------17-14------------------17-14-------------|
bb|-----------17-15-------------------17-15----15------------17-15----|
gb|--------16-------14---16--------16-------16------------16-------14-|
db|-------------------------------------------------------------------|
ab|-------------------------------------------------------------------|
Eb|-------------------------------------------------------------------|
eb|----17-14------------------17-14-----------------|
bb|-------------17-15----15------------17-15----15--|
gb|-16-------16-------16------------16-------16-----|
db|-------------------------------------------------|
ab|-------------------------------------------------|
Eb|-------------------------------------------------|

 DC#mBm
that it helps to take away the pain.
 Asus4G
 Hey Jonny.
 Asus4
 Hey what you say Jonny?

eb|---------------------------------------------------|
bb|--0-0-0-0-0-0h2/3-5-0-0h2/3-5-5-5-5-5-3\2/3\2/3-2--|
gb|--4-4-4-4-4-----4-4-4-----4-4-4-4-4-4-4-4-4-4-4-4--| main riff
db|---------------------------------------------------| repeated
ab|---------------------------------------------------|
Eb|---------------------------------------------------|


Verse 3: main riff repeated

My appetite ain't got no heart.
I said my appetite ain't got no heart.
Shocking people when you feel that pull.
Shock 'em, drop ‘em when you know it's full.

Chorus 2:

2:40 (this riff and main riff play at same time)
eb|-----17-14------------------17-14-------------------17-14----------------|
bb|--------------17-15------------------17-15-------------------17-15---15--|
gb|--16-------16-------14--16--------16-------14----16-------16------16-----|
db|-------------------------------------------------------------------------|
ab|-------------------------------------------------------------------------|
Eb|-------------------------------------------------------------------------|


I feel a burning in my body core. It's a yearning that you can't ignore.
2:49
eb|---17-14-----------------17-14-----------------|
bb|-------------17-15---15-----------17-15--------|
gb|---------16-------16-----------16-------14-16--|
db|-----------------------------------------------|
ab|-----------------------------------------------|
Eb|-----------------------------------------------|


And I wanna go out tonight
2:54
eb|--17-14-------------------17-14------------------17-14-------------|
bb|-----------17-15-------------------17-15----15------------17-15----|
gb|--------16-------14---16--------16-------16------------16-------14-|
db|-------------------------------------------------------------------|
ab|-------------------------------------------------------------------|
Eb|-------------------------------------------------------------------|


Hey Jonny, I got faith in ya man, it's gonna be all right
3:02
eb|----17-14------------------17-14-----------------|
bb|-------------17-15----15------------17-15----15--|
gb|-16-------16-------16------------16-------16-----|
db|-------------------------------------------------|
ab|-------------------------------------------------|
Eb|-------------------------------------------------|

and he's convinced himself right in his brain

 DC#mBm
that it helps to take away the pain.
 Asus4G
 Hey Jonny.
 Asus4
 Hey what you say Jonny?

 DC#mBm
 Tell us what's goin' on
 Asus4G
Feels like everything's wrong
 Asus4
 Hey what you say Jonny?
 DC#mBmAsus4G
 If the future is real, Jonny you've got to heal
 Asus4
 Hey What you say Jonny?

Outro:

Main riff: play 4 times
eb|---------------------------------------------------|
bb|--0-0-0-0-0-0h2/3-5-0-0h2/3-5-5-5-5-5-3\2/3\2/3-2--|
gb|--4-4-4-4-4-----4-4-4-----4-4-4-4-4-4-4-4-4-4-4-4--|
db|---------------------------------------------------| x 4
ab|---------------------------------------------------|
Eb|---------------------------------------------------|
eb|-------------------------------------|
bb|-------0--------0-------0-------0----|
gb|-----4---4----4---4---4---4---4---4--|
db|-------------------------------------|
ab|--2--------2--------2-------2--------|
Eb|-------------------------------------|

When everybody else refrained

eb|--------------------------------------|
bb|-------0--------0-------0-------0-----|
gb|-----4---4----4---4---4---4---4---4---|
db|--4---------2-------------------------|
ab|--------------------5-------4-------2-|
Eb|--------------------------------------|

My Uncle Jonny did cocaine

END

+--------------------------------------------------------------------------+

| This file is the author's own work and represents their interpretation |
| of the song. You may only use this file for private study, scholarship, |
| or research. |
+--------------------------------------------------------------------------+


Ultimate-Guitar.Com © 2005


Asus4 Bm C#m D G
variations - click chord images
Transpose chords:
Tuning:
Cool service:
View: Size:
A  A  A
Rating:
Layout:
  • Currently 0/5 Stars.
  • 1
  • 2
  • 3
  • 4
  • 5
 
Accuracy:
  • Currently 0/5 Stars.
  • 1
  • 2
  • 3
  • 4
  • 5
 
click stars to rate
Chordie recommends:
Check out these online guitar lessons
Songbook:
Login to add this song to your songbook
Support the artist
Preview/buy this song
MSN Music
Why this non-profit ad?

 
login to add comments/video/corrections