Daddys Eyes

Killers

e|---------------|

B|---------------|
G|---------------|
D|---------------|
A|--7-7---5b-7---|
E|------7--------|
I'll tell you what you wanna know

e|---------------|
B|---------------|
G|---------------|
D|---------------|
A|--3-3---2b-3---|
E|------3--------|


But boy you better listen close

e|--------------|
B|--------------|
G|--------------|
D|--------------|
A|--0-0------0--|
E|------0-3b----|


People gonna tell you lies.

e|-----------------|
B|-----------------|
G|-----------------|
D|-----------------|
A|--7-7---5b-7--5b-|
E|------7----------|


Don't let it come as a surprise.

e|---------------|
B|---------------|
G|---------------|
D|---------------|
A|--7-7---5b-7---|
E|------7--------|


That woman's on my back again.

e|---------------|
B|---------------|
G|---------------|
D|---------------|
A|--3-3---2b-3---|
E|------3--------|


I know she's got the best intentions.

e|--------------|
B|--------------|
G|--------------|
D|--------------|
A|--0-0------0--|
E|------0-3b----|


When you begin to realize

e|-----------------|
B|-----------------|
G|-----------------|
D|-----------------|
A|--7-7---5h7/9--5-|
E|------7----------|


you know you got your daddy's eyes.

Pre Chorus 1:

 G
e|-7-7-7-7-7-7-7-7-7-7-7-7-7-7-7-7-|
B|-8-8-8-8-8-8-8-8-8-8-8-8-8-8-8-8-|
G|-7-7-7-7-7-7-7-7-7-7-7-7-7-7-7-7-|
D|---------------------------------|
A|---------------------------------|
E|---------------------------------|


And there's somethin' i wanna say,

 Bm
e|-7-7-7-7-7-7-7-7-7-7-7-7-7-7-7-7-|
B|-7-7-7-7-7-7-7-7-7-7-7-7-7-7-7-7-|
G|-7-7-7-7-7-7-7-7-7-7-7-7-7-7-7-7-|
D|---------------------------------|
A|---------------------------------|
E|---------------------------------|


I love her too.
 Am
e|-8--8--8--8--8--8--8--8--8--8--8--8--8--8--8--8--|
B|-10-10-10-10-10-10-10-10-10-10-10-10-10-10-10-10-|
G|-9--9--9--9--9--9--9--9--9--9--9--9--9--9--9--9--|
D|-------------------------------------------------|
A|-------------------------------------------------|
E|-------------------------------------------------|


And all of this has got

 GBm
e|-7-7-7-7-7-7-7-7--7-7-7-7-7-7-7-7-|
B|-8-8-8-8-8-8-8-8--7-7-7-7-7-7-7-7-|
G|-7-7-7-7-7-7-7-7--7-7-7-7-7-7-7-7-|
D|----------------------------------|
A|----------------------------------|
E|----------------------------------|


nothin' to do with you.

Chorus 1:

 EmC
And I'd like to stay but i can't because,
 Cmaj7C
 I've been foolin' around.
 AmAsus2AmEmD
 And I know that you call because you never even knew that it was hurtin' me. 

Verse 2:

e|---------------|
B|---------------|
G|---------------|
D|---------------|
A|--7-7---5b-7---|
E|------7--------|


When you put it on the other hand.

e|---------------|
B|---------------|
G|---------------|
D|---------------|
A|--3-3---2b-3---|
E|------3--------|


when you're old enough to understand.

e|--------------|
B|--------------|
G|--------------|
D|--------------|
A|--0-0------0--|
E|------0-3b----|


That glove will bring it all to light.

e|---------------|
B|---------------|
G|---------------|
D|---------------|
A|--7-7---5-7--5-|
E|------7--------|


I didn't say that made it right.

e|---------------|
B|---------------|
G|---------------|
D|---------------|
A|--7-7---5b-7---|
E|------7--------|


Cause that woman's on my back again.

e|--------------------------------------|
B|--------------------------------------|
G|--------------------------------------|
D|--------------------------------------|
A|--3-3---2b-3--------------0-0------0--|
E|------3-----------------------0-3b----|


I know she's got the best intentions.

e|-----------------|
B|-----------------|
G|-----------------|
D|-----------------|
A|--7-7---5h7/9--5-|
E|------7----------|


When you begin to realize
You'll know you've got your daddy's eyes.

Pre Chorus 2:
 G
e|-7-7-7-7-7-7-7-7-7-7-7-7-7-7-7-7-|
B|-8-8-8-8-8-8-8-8-8-8-8-8-8-8-8-8-|
G|-7-7-7-7-7-7-7-7-7-7-7-7-7-7-7-7-|
D|---------------------------------|
A|---------------------------------|
E|---------------------------------|


And there's somethin' I wanted to say,

 Bm
e|-7-7-7-7-7-7-7-7-7-7-7-7-7-7-7-7-|
B|-7-7-7-7-7-7-7-7-7-7-7-7-7-7-7-7-|
G|-7-7-7-7-7-7-7-7-7-7-7-7-7-7-7-7-|
D|---------------------------------|
A|---------------------------------|
E|---------------------------------|


I love her too.

 Am
e|-8--8--8--8--8--8--8--8--8--8--8--8--8--8--8--8--|
B|-10-10-10-10-10-10-10-10-10-10-10-10-10-10-10-10-|
G|-9--9--9--9--9--9--9--9--9--9--9--9--9--9--9--9--|
D|-------------------------------------------------|
A|-------------------------------------------------|
E|-------------------------------------------------|


And all of this has got

 GBm
e|-7-7-7-7-7-7-7-7--7-7-7-7-7-7-7-7-|
B|-8-8-8-8-8-8-8-8--7-7-7-7-7-7-7-7-|
G|-7-7-7-7-7-7-7-7--7-7-7-7-7-7-7-7-|
D|----------------------------------|
A|----------------------------------|
E|----------------------------------|


nothin' to do with you.

Chorus 2:

 EmC
And I'd like to stay but I can't because,
 Cmaj7C
 I've been foolin' around.
 AmAsus2AmEmD
 And I know that you call because you never even knew that it was hurtin' me.
 EmC
 And I'd like to stay but I can't because,
 Cmaj7C
 I've been foolin' around.
 AmAsus2AmEmD
 And I know that you call because you never even knew that it was hurtin' me.

Bridge: (delay on guitar, 217ms, 2 repeats, palm mute)

Sometimes people get tired.

         e|---------8-8-7-----------------------------10-10-8-7-8-8-8-8-8-7------|
         B|-------8-------8----------8-8-7-------7-10-----------------------10-8-|
         G|-----9----------------7-7-------7---7---------------------------------|
         D|--10----------------9-------------------------------------------------|
         A|----------------------------------------------------------------------|
         E|----------------------------------------------------------------------|


And I woke up a little too late to lie.

         e|---------8-8-7----------------------------------5-5-5----------3-3-2---|
         B|-------8-------8---------8-10-10-10-8--------5--------8------3-------3-|
         G|-----9----------------7--------------------5---------------4-----------|
         D|--10----------------9------------------7-7---------------5-------------|
         A|-----------------------------------------------------------------------|
         E|-----------------------------------------------------------------------|

The dream should last a long time.

         e|---------8-8-7-----------------------------10-10-8-7-8-8-8-8-8-7------|
         B|-------8-------8----------8-8-7-------7-10-----------------------10-8-|
         G|-----9----------------7-7-------7---7---------------------------------|
         D|--10----------------9-------------------------------------------------|
         A|----------------------------------------------------------------------|
         E|----------------------------------------------------------------------|


But this is not what I'd call goodbye.

Solo:

e|------------------------------------------------------------------------|
B|--17-17-17-17-17p15-15-17-------------------17-15-15--------------------|
G|--------------------------17--17-16-14-17------------16-17--17-16-14-17-|
D|------------------------------------------------------------------------|
A|------------------------------------------------------------------------|
E|------------------------------------------------------------------------|
e|------------------------------------------------------------------|
B|--15b-------------------------------------------------------------|
G|-------16-14b-----------------------------------------------------|
D|--------------17-16-14-14-14-14-14-14-14-13-12-12-12-12-12-12-12--|
A|------------------------------------------------------------------|
E|------------------------------------------------------------------|
e|--19-19-19-19-19--17------------------------------------------------------------|
B|---------------------20-17--17-15-17--17-15h17p15-13-12b-8--12-13-12-10--8-10-8-|
G|--------------------------------------------------------------------------------|
D|--------------------------------------------------------------------------------|
A|--------------------------------------------------------------------------------|
E|--------------------------------------------------------------------------------|
e|-------------------------------------------|
B|--5-5-5-5-7-7-7-7-8-8-8-8-17-17-17-17--17--|
G|-------------------------------------------|
D|-------------------------------------------|
A|-------------------------------------------|
E|-------------------------------------------|


Chorus 3:

 EmC
 I'd love to stay but I can't because,
 Cmaj7C
 I've been fooling around.
 AmAsus2AmEmD
 And I know that you called because you never even knew that it was hurting me.

 EmC
 And I would love to stay but I can't because,
 Cmaj7C
 I've been fooling around.
 AmAsus2AmEmD
 And I know that you called because you never even knew that it was hurting me.
 Em
 Me.

Outro:

 GD/F#Am
     But I love her too.

 GD/F#Em
e|--3-----2-----0---|
B|--0-----3-----0---|
G|--0-----2-----0---|
D|--0-----0-----2---|
A|--2-----x-----2---|
E|--3-----2-----0---|


END

+--------------------------------------------------------------------------+

| This file is the author's own work and represents their interpretation |
| of the song. You may only use this file for private study, scholarship, |
| or research. |
+--------------------------------------------------------------------------+


Ultimate-Guitar.Com © 2005


Am Asus2 Bm C Cmaj7 D D/F# Em G
variations - click chord images
Transpose chords:
Tuning:
Cool service:
View: Size:
A  A  A
Rating:
Layout:
  • Currently 0/5 Stars.
  • 1
  • 2
  • 3
  • 4
  • 5
 
Accuracy:
  • Currently 4/5 Stars.
  • 1
  • 2
  • 3
  • 4
  • 5
 
click stars to rate
Chordie recommends:
Learn to play songs at Jamplay.com with video guitar lessons
Songbook:
Login to add this song to your songbook
Support the artist
Preview/buy this song
MSN Music
Why this non-profit ad?

 
login to add comments/video/corrections