Menghitung Hari

Kris Dayanti

e ||---------3--------2-----|--------------------|-------2---------------|

B ||-----------3------------|-------0-------1----|-------1-------1--0----|
G ||-o-----0--------2---2---|---------------0----|-----2---------0--0----|
D ||-o------------0---------|-----0-------2------|---0-------------------|
A ||-----3------------------|-----------0--------|-----------------------|
E ||------------------------|---3----------------|-----------------------|

 Am7D7GEmAm7D7
e |-----------|-------2-------------|----------------------|----------2-----||
B |-------1---|-------1---------0---|-------0--------1-----|-------1--------||
G |-------0---|-----2---------0-----|----------------0-----|-----2---2----o-||
D |-----2-----|---0---------0-------|-----2--------2-------|---0----------o-||
A |---0-------|---------------------|------------0---------|----------------||
E |-----------|-----------3---------|---0------------------|----------------||

Jalan cerita....
Yang aku minta....

CHORUS:

 GF#m7EmDAm7Bm7D7
e |---------3-------3-|---------3-------3-|--------------------2-|----------2------|
B |-------3-------3---|-------3-------3---|--------0-1-------3---|------1----------|
G |-----0-------0-----|-----0-------0-----|---------------0------|----2---2--------|
D |---5-------4-------|---2-------0-------|------2---------------|--0--------------|
A |-------------------|-------------------|---0---------2--------|-----------------|
E |-------------------|-------------------|----------------------|-----------------|

Pergi saja .... Bilang saja....

 Am7D7GEmAm7D7G
e |--------------2-|-------------------|--------------2-|------------------|
B |--------1-----1-|---------0-----3---|------1-------1-|------1---0-------|
G |------0-----2---|-------0-------0---|------0-----2---|------------------|
D |----2-----0-----|-----0-------------|----2-----0-----|----0---0---------|
A |--0-------------|-------------2-----|--0-------------|------------------|
E |----------------|---3-------0-------|----------------|--3---------------|

Biar semua.... Diriku kini....

SOLO:

 EmBmAmG
e |---------0--------------2----------|-----------------------------3--------|
B |---0------------3------------------|---1------------------0---------------|
G |---------------------4-------------|--------------------2-----0-----------|
D |-----------------------------------|--------------------------------------|
A |----------------2------------------|---0----------------------------------|
E |---0-------------------------------|--------------------2-3---------------|


 AmBmC
e |---------0-----------2-------------|---3------3------3--------------------|
B |---1------------3------------------|-----3------3------3------------------|
G |-------0---------------------------|-------0------0-----------------------|
D |-----------------------------------|--------------------------------------|
A |---0------------2------------------|---3----------------------------------|
E |-----------------------------------|--------------------------------------|

 CBm/GAm7

e |---3-----3-2---------|--2----0--------------|------
B |-----3---------3-----|-----------3----------|------
G |-------0---------0---|-------------0--------|------
D |---------------------|----------------------|------
A |---3-----3-3---------|--3----2--------------|------
E |---------------------|----------------------|------

Padamkan saja.... dst....

RIFF 1 1x
CHORUS
CHORUS berhenti pada bass kord D7

- end of tab.

END

+--------------------------------------------------------------------------+

| This file is the author's own work and represents their interpretation |
| of the song. You may only use this file for private study, scholarship, |
| or research. |
+--------------------------------------------------------------------------+


Ultimate-Guitar.Com © 2005


Am Am7 Bm Bm7 C D D7 Em F#m7 G
variations - click chord images
Transpose chords:
Tuning:
Cool service:
View: Size:
A  A  A
Rating:
Layout:
  • Currently 0/5 Stars.
  • 1
  • 2
  • 3
  • 4
  • 5
 
Accuracy:
  • Currently 1.5/5 Stars.
  • 1
  • 2
  • 3
  • 4
  • 5
 
click stars to rate
Chordie recommends:
Learn to play this song & others via video guitar lessons at JamPlay.com
Songbook:
Login to add this song to your songbook
Support the artist
Preview/buy this song
MSN Music
Why this non-profit ad?

 
login to add comments/video/corrections