Guitar Tabs, Chords and Lyrics


Running Up That Hill   Within Temptation



| Ultimate Guitar Tabs Archive - your #1 source for tabs!               |
| http://www.ultimate-guitar.com/                                       |
|                                                                       |
| Over 200,000 guitar, guitar pro and bass tabs! Also lessons, news,    |
| columns and guitar forums!                                            |


Artist: Within Temptation
Song: Running Up That Hill


G----------------|----------------|----------------|-------------|
D----------------|----------------|----------------|-------------|
A-3--3-X-3--3--3-|-5--5-X-5--5--5-|----------------|-------------|
E----------------|----------------|-0--0-X-0--0--0-|-00-22-33-22-|

G----------------|----------------|----------------|-------------|
D----------------|----------------|----------------|-------------|
A-3--3-X-3--3--3-|-5--5-X-5--5--5-|-2--0-----------|-------------|
E----------------|----------------|-------3--0-----|-00-22-33-22-|


G-------------------|
D-------------------|
A-3-3-5-------------|
E-------2-0--0-0232-|

G-------------------|
D-------------------|
A-3-3-5-------------|
E-------2-0--0-0----|

G-------------------|
D-------------------|
A-3-3-5-------------|
E-------2-0--0-0232-|

G-------------------|
D-------------------|
A-3--2--0---3--2----|
E-------------------|

G-------------|-------------|-------------|-------------|
D-------------|-------------|-------------|-------------|
A-3-333-3-3-3-|-2-222-2-2-2-|-------------|-------------|
E-------------|-------------|-0-000-0-0-0-|-0--2--3--2--|

G-------------|-------------|-------------|-------------|
D-------------|-------------|-------------|-------------|
A-3-333-3-3-3-|-5-555-5-5-5-|-------------|-------------|
E-------------|-------------|-0-000-0-0-0-|-0--2--3--2--|

G-------------|
D-------------|
A-3--2--------|
E-------0-----|

G-------------------|
D-------------------|
A-3-3-5-------------|
E-------2-0--0-0232-|

G-------------------|
D-------------------|
A-3-3-5-------------|
E-------2-0--0-0----|

G-------------------|
D-------------------|
A-3-3-5-------------|
E-------2-0--0-0232-|




G-------------------|
D-------------------|
A-3-3-5-------------|
E-------2-0--0-0----|

G-------------------|
D-------------------|
A-3-3-5-------------|
E-------2-0--0-0232-|

G-------------------|
D-------------------|
A-3--2--0---3--2----|
E-------------------|


G-------------|-------------|-------------|-------------|
D-------------|-------------|-------------|-------------|
A-3-333-3-3-3-|-2-222-2-2-2-|-------------|-------------|
E-------------|-------------|-0-000-0-0-0-|-0--2--3--2--|

G-------------|-------------|-------------|-------------|
D-------------|-------------|-------------|-------------|
A-3-333-3-3-3-|-5-555-5-5-5-|-------------|-------------|
E-------------|-------------|-0-000-0-0-0-|-0--2--3--2--|

G-------------|-------------|-------------|-------------|
D-------------|-------------|-------------|-------------|
A-3-333-3-3-3-|-2-222-2-2-2-|-------------|-------------|
E-------------|-------------|-0-000-0-0-0-|-0--2--3--2--|

G-------------|-------------|-------------|-------------|
D-------------|-------------|-------------|-------------|
A-------------|-5-555-5-5-5-|-------------|-------------|
E-3-333-3-3-3-|-------------|-0-----------|-------------|



G-------------|-------------|-------------|-------------|
D-------------|-------------|-------------|-------------|
A-3-333-3-3-3-|-5-555-5-5-5-|-------------|-------------|
E-------------|-------------|-0-000-0-0-0-|-0--2--3--2--|

G-------------|-------------|-------------|-------------|
D-------------|-------------|-------------|-------------|
A-3-333-3-3-3-|-5-555-5-5-5-|-------------|-------------|
E-------------|-------------|-0-000-0-0-0-|-0--2--3--2--|

G-------------|-------------|-------------|-------------|
D-------------|-------------|-------------|-------------|
A-3-333-3-3-3-|-2-222-2-2-2-|-------------|-------------|
E-------------|-------------|-0-000-0-0-0-|-0--2--3--2--|

G-------------|-------------|-------------|-------------|
D-------------|-------------|-------------|-------------|
A-3-333-3-3-3-|-5-555-5-5-5-|-------------|--------5555-|
E-------------|-------------|-0-000-0-0-0-|-00-22-3-----|

G-------------|-------------|-------------|-------------|
D-------------|-------------|-------------|-------------|
A-3-333-3-3-3-|-2-222-2-2-2-|-------------|-------------|
E-------------|-------------|-0-000-0-0-0-|-0--2--3--2--|

END

+--------------------------------------------------------------------------+
| This file is the author's own work and represents their interpretation   |
| of the song. You may only use this file for private study, scholarship,  |
| or research.                                                             |
+--------------------------------------------------------------------------+



Important: The song above is NOT stored on the Chordie server. The original song is hosted at www.ultimate-guitar.com. Chordie works as a search engine and provides on-the-fly formatting. Chordie does not index songs against artists/composers will. To remove this song please click here.

This song is displayed as text-only. Transposing and tuning is only available for chordpro-songs.

Login - add to songbook

Rating click stars to rate

Layout
Accuracy

SHARE PAGE  




You need to log in to post comments