Pasubali

Spongecola

---------------

---------------
e|---------------------------------|
B|---------------------------------|
G|---------------------------------|
D|--/8------8--10---7-----7--8-----|
A|------10-------------8-----------|
E|---------------------------------|
e|------------------------------|
B|------------------------------|
G|---7--5-5------5-5------------|
D|-----------8-8----------------|
A|------------------------------|
E|------------------------------|
e|------------------------|
B|------------------------|
G|--7-7--5-5------5-5-----|
D|------------8-8---------| (3X)
A|------------------------|
E|------------------------|
e|------------------------|
B|---6--------------------|
G|------8-8-7-7-8-8-------|
D|------------------------|
A|------------------------|
E|------------------------|
e|------------------------|
B|--6-6-------------------|
G|------8-8-7-7-8-8-------| (3x)
D|------------------------|
A|------------------------|
E|------------------------|
-------
-------

 BbDm
Kung pwede lang wag mo na tong iwasan

 EbEbmBb
At wag mo ring ituring na biro

 BbDm
Marahil ito'y di mo inaasahan

 EbEbmBb
Pero sana'y wag ipinid ang pinto

-------

Refrain|
-------


 GmF
Itikom ang bibig

 Eb
Mata'y ibaling sakin

 GmFEb
Pakinggan mo ang sasabihin ko

-------

Chorus | Walter Michael De la Cruz Rockz
-------


 Bb
Kailan mo ba matututunan

 Dm
Kailan mo ba pagsisigawan

 GmF#
Na di mo na pagkakailang tayo

 Bb
Kayrami nang pinagdaanan

 Dm
Ano pa ba ang iyong kailangan

 GmF#
Nagsusumamo na sabihin mo

------------

Instrumental|
------------
-------

Verse 2|
-------


 BbDm
Ang diwa ko'y tigib sa kaiisip

 EbEbmBb
Sa sarili laging may kinikimkim

 BbDm
Patuloy lamang bang mananaginip

 EbEbmBb
At mananatili lang na nakapikit

---------

Refrain 2|
---------


 GmF
Ako'y mayrong batid

 Eb
Ito'y iyong pag amin

 GmFEb
Hindi na natin maiiwasan to

-------

Chorus | Walter Michael De la Cruz Rockz
-------


 Bb
Kailan mo ba matututunan

 Dm
Kailan mo ba pagsisigawan

 GmF#
Na di mo na pagkakailang tayo

 Bb
Kayrami nang pinagdaanan

 Dm
Ano pa ba ang iyong kailangan

 GmF#
Nagsusumamo na sabihin mo

-------

Refrain|
-------


 GmF
Itikom ang bibig

 Eb
Mata'y ibaling sakin

 GmFEb
Pakinggan mo ang sasabihin ko

 -----
 ADlib|
 -----
-------

Chorus | Walter Michael De la Cruz Rockz
-------


 Bb
Kailan mo ba matututunan

 Dm
Kailan mo ba pagsisigawan

 GmF#
Na di mo na pagkakailang tayo

 Bb
Kayrami nang pinagdaanan

 Dm
Ano pa ba ang iyong kailangan

 GmF#
Nagsusumamo na sabihin mo

 Bb-Dm-GmF#
       Nagsusumamo na sabihin mo

 Bb-Dm-Gm-F#
hooohhh  hooooohh

Outro:

e|---------------------------------|
B|---------------------------------|
G|---------------------------------|
D|--/8------8--10---7-----7--8-----|
A|------10-------------8-----------|
E|---------------------------------|


P.S.
_______________________________________________________
If you've got comments or suggestions about my tab|
I wanna hear it from you! Hit me back at my email add|
or you can send me a message in friendster at|
Walterfdelacruz@yahoo.com or Michaelfdelacruz@yahoo.com|
_______________________________________________________|

All Rights Reserved
© Copyright 2006

Please Support the OPM Industry.
And also, Please Support my Tab.

Thanks.

Rock oUt.
Walter Michael Rocks Ultimate Guitar!

END

+--------------------------------------------------------------------------+

| This file is the author's own work and represents their interpretation |
| of the song. You may only use this file for private study, scholarship, |
| or research. |
+--------------------------------------------------------------------------+


Ultimate-Guitar.Com © 2005


Bb Dm Eb Ebm F F# Gm
variations - click chord images
Transpose chords:
Tuning:
Cool service:
View: Size:
A  A  A
Rating:
Layout:
  • Currently 5/5 Stars.
  • 1
  • 2
  • 3
  • 4
  • 5
 
Accuracy:
  • Currently 5/5 Stars.
  • 1
  • 2
  • 3
  • 4
  • 5
 
click stars to rate
Chordie recommends:
Get acoustic guitar lessons and electric guitar lessons at JamPlay.com
Songbook:
Login to add this song to your songbook
Support the artist
Preview/buy this song
MSN Music
Why this non-profit ad?

 
login to add comments/video/corrections