"yes"; ?> Starlight by Muse - guitar chords, guitar tabs and lyrics - chordie

Starlight

Muse

 BBC#mG#mE
e|-----------------------------------------------------------|
B|-----------------------------------------------------------|
G|--4------44444444--66666666--1313131313131313--99999999----|
D|--4-x32--44444444--66666666--1313131313131313--99999999----|
A|--2------22222222--44444444--1111111111111111--77777777----|
E|-----------------------------------------------------------|

lead:
 BC#mG#mE
e|--11----11-12-9---12-11-9-11------11-12------12-11---------|
B|----12----------9------------12-9-------12-9-------14------|
G|------11---------------------------------------------------|
D|-----------------------------------------------------------|
A|-----------------------------------------------------------|
E|-----------------------------------------------------------|

}

Verse 1:{
rhythm:
 BBC#mG#mE
e|-----------------------------------------------------------|
B|-----------------------------------------------------------|
G|--4------44444444--66666666--1313131313131313--99999999----|
D|--4-x32--44444444--66666666--1313131313131313--99999999----|
A|--2------22222222--44444444--1111111111111111--77777777----|
E|-----------------------------------------------------------|


 BC#mG#mE
 Far away, this ship is taking me far away...
 BC#m
Far away from the memories...
 G#mE
Of the people who care if I live or die...
 BC#mG#m-E
 Starlight, I will be chasing a starlight...
 BC#m
Until the end of my life...
 G#mE
I don't know if it's worth it anymore...
}

Chorus:{
rhythm:
 BC#mG#mE

e|----------------------------------------------------|
B|----------------------------------------------------|
G|--44444444--66666666--1313131313131313--99999999----|
D|--44444444--66666666--1313131313131313--99999999----|
A|--22222222--44444444--1111111111111111--77777777----|
E|----------------------------------------------------|

lead:
 BC#mG#mE
e|--11----11-12-9---12-11-9-11------11-12------12-11---------|
B|----12----------9------------12-9-------12-9-------14------|
G|------11---------------------------------------------------|
D|-----------------------------------------------------------|
A|-----------------------------------------------------------|
E|-----------------------------------------------------------|


 B-C#mG#mE
 Hold you in my arms...
 B-C#mG#mE
I just wanted to hold you in my arms...
}

Verse 2:{
rhythm:
 BC#mG#mE
e|----------------------------------------------------|
B|----------------------------------------------------|
G|--44444444--66666666--1313131313131313--99999999----|
D|--44444444--66666666--1313131313131313--99999999----|
A|--22222222--44444444--1111111111111111--77777777----|
E|----------------------------------------------------|

lead:
 BC#mG#mE
e|----7---7----7---7---7---7---7---7---7---7----------|
B|--7---7----5---5---5---4---4---5---5---5------------|
G|----------------------------------------------------|
D|----------------------------------------------------|
A|----------------------------------------------------|
E|----------------------------------------------------|


 BC#mG#mE
 My life, you electrify my life...
 B-C#m
Let's conspire to ignite...
 G#mE
All the souls that will die just to feel your life...
}

Refrain:{
rhythm:
 C#mF#mEbmG#mAEAEbm
e|-----------------------------------------------------------|
B|-----------------------------------------------------------|
G|--6666-11111111-8888-13131313-14141414-9999-14141414-8888--|
D|--6666-11111111-8888-13131313-14141414-9999-14141414-8888--|
A|--4444-9-9-9-9--6666-11111111-12121212-7777-12121212-6666--|
E|-----------------------------------------------------------|


 C#mF#mEbm
 I'll never let you go...
 G#m
If you promise not to...
 AE
 Fade away...
 AEbm
Never fade away...
}

Bridge:{
lead:
 G#mEbmEB

e|--7--7--7--6--6--6--7--7--7-----7-------------------|
B|---9--9--9--7--7--7--9--9--9---7-7--7-9-7-----------|
G|----8--8-----8--8-----9--9----8----8----------------|
D|----------------------------------------------------|
A|----------------------------------------------------|
E|----------------------------------------------------|

 G#m-EbmE-B
 Our hopes and expectations...
 G#m-EbmE-B
 Black Holes and Revelations...

rhythm enters, lead still plays:
 G#mEbmEB
e|----------------------------------------------------|
B|----------------------------------------------------|
G|-----------88888888--99999999-----------------------|
D|--66666666-88888888--99999999-99999999--------------|
A|--66666666-66666666--77777777-99999999--------------|
E|--44444444--------------------77777777--------------|

 G#m-EbmE-B
 Our hopes and expectations...
 G#m-EbmE-B
 Black Holes and Revelations...

interlude: B-

Chorus:{
rhythm:
 BC#mG#mE
e|----------------------------------------------------|
B|----------------------------------------------------|
G|--44444444--66666666--1313131313131313--99999999----|
D|--44444444--66666666--1313131313131313--99999999----|
A|--22222222--44444444--1111111111111111--77777777----|
E|----------------------------------------------------|

lead:
 BC#mG#mE
e|--11----11-12-9---12-11-9-11------11-12------12-11---------|
B|----12----------9------------12-9-------12-9-------14------|
G|------11---------------------------------------------------|
D|-----------------------------------------------------------|
A|-----------------------------------------------------------|
E|-----------------------------------------------------------|


 B-C#mG#mE
 Hold you in my arms...
 B-C#mG#mE
I just wanted to hold you in my arms...
}

Verse 3:
rhythm:
 BC#mG#mE
e|----------------------------------------------------|
B|----------------------------------------------------|
G|--44444444--66666666--1313131313131313--99999999----|
D|--44444444--66666666--1313131313131313--99999999----|
A|--22222222--44444444--1111111111111111--77777777----|
E|----------------------------------------------------|


 BC#mG#mE
 Far away, this ship is taking me far away...
 BC#m
Far away from the memories...
 G#mE
Of the people who care if I live or die...

Refrain:{
rhythm:
 C#mF#mEbmG#mAEAEbm

e|-----------------------------------------------------------|
B|-----------------------------------------------------------|
G|--6666-11111111-8888-13131313-14141414-9999-14141414-8888--|
D|--6666-11111111-8888-13131313-14141414-9999-14141414-8888--|
A|--4444-9-9-9-9--6666-11111111-12121212-7777-12121212-6666--|
E|-----------------------------------------------------------|


 C#mF#mEbm
 I'll never let you go...
 G#m
If you promise not to...
 AE
 Fade away...
 AEbm
Never fade away...
}

Bridge:{
 G#mEbmEB
e|----------------------------------------------------|
B|----------------------------------------------------|
G|-----------88888888--99999999-----------------------|
D|--66666666-88888888--99999999-99999999--------------|
A|--66666666-66666666--77777777-99999999--------------|
E|--44444444--------------------77777777--------------|

 G#m-EbmE-B
 Our hopes and expectations...
 G#m-EbmE-B
 Black Holes and Revelations...
 G#m-EbmE-B
 Our hopes and expectations...
 G#m-EbmE-B
 Black Holes and Revelations...
}

Chorus:{
rhythm:
 BC#mG#mE
e|----------------------------------------------------|
B|----------------------------------------------------|
G|--44444444--66666666--1313131313131313--99999999----|
D|--44444444--66666666--1313131313131313--99999999----|
A|--22222222--44444444--1111111111111111--77777777----|
E|----------------------------------------------------|

lead:
 BC#mG#mE
e|--11----11-12-9---12-11-9-11------11-12------12-11---------|
B|----12----------9------------12-9-------12-9-------14------|
G|------11---------------------------------------------------|
D|-----------------------------------------------------------|
A|-----------------------------------------------------------|
E|-----------------------------------------------------------|


 B-C#mG#mE
 Hold you in my arms...
 B-C#mG#mE
I just wanted to hold you in my arms...

not really sure of the accuracy, about 99.8%

END

+--------------------------------------------------------------------------+

| This file is the author's own work and represents their interpretation |
| of the song. You may only use this file for private study, scholarship, |
| or research. |
+--------------------------------------------------------------------------+


Ultimate-Guitar.Com © 2005


A B C#m E Ebm F#m G#m G#m-E
variations - click chord images
Transpose chords:
Tuning:
Cool service:
View: Size:
A  A  A
Rating:
Layout:
  • Currently 0/5 Stars.
  • 1
  • 2
  • 3
  • 4
  • 5
 
Accuracy:
  • Currently 0/5 Stars.
  • 1
  • 2
  • 3
  • 4
  • 5
 
click stars to rate
Chordie recommends:
Learn to play guitar with video-based, online guitar lessons at JamPlay.com
Songbook:
Login to add this song to your songbook
Support the artist
Preview/buy this song
MSN Music
Why this non-profit ad?

 
login to add comments/video/corrections