My Heart

Irwansyah

 |----------------0---------------------------------|

|---3-1-0----------3-1---------3-1-0---------------|
|----2-2----------2-2-2---------2-2---------1-2-4--|
|--2------------2-------------2------------2-2-2---| 2x
|-0------------0-------------0---------------------|
|-----------------------------------------0--------|

 AmE
 Disini kau dan aku
 ADm
 Terbiasa bersama
 E7EAm
 Menjalani kasih sayang
 E7E
 Bahagia ku dengan mu

 AmE
 Pernahkah kau menguntai
 ADm
 Hari paling indah
 E7EAm
 Ku ukir nama kita berdua
 E7E
 Disini syurga kita
chorus (plucking)
 AmDm
 Bila kita mencintai yang lain
 GC
 Mungkinkah hati ini akan tegar
 FDm
 Sebisa mungkin, tak akan pernah
 FE
 Sayangku akan hilang

 AmDm
 If you love somebody could we be this strong
 GC
 I will fight to win our love will conquer all
 FDm
 Wouldn't risk my love, even just one night
 FE
 Our love will stay in my heart

My heart

keyboard part (strum the chords)

 AmDmGC

 |--------------------------------------------------|
 |--------------66--44------------------------------|
 |-7-5-7-5-7---------------5-3-5-3-5-55--88-77------|
 |-----------55-------------------------------------|
 |--------------------------------------------------|
 |--------------------------------------------------|

 FDmFE
 |-------------------------------------8b-----------|
 |-8-6-8-6-8~-10-8-10-8-10~--10-8-10-8---11-11-10~--|
 |--------------------------------------------------|
 |--------------------------------------------------|
 |--------------------------------------------------|
 |--------------------------------------------------|


verse (plucking)

 AmE
 Pernahkah kau menguntai
 ADm
 Hari paling indah
 E7EAm
 Ku ukir nama kita berdua
 E7E
 Disini syurga kita

chorus (plucking)

 AmDm
 Bila kita mencintai yang lain
 GC
 Mungkinkah hati ini akan tegar
 FDm
 Sebisa mungkin, tak akan pernah
 FE
 Sayangku akan hilang

chorus (strumming)

 AmDm
 Bila kita mencintai yang lain
 GC
 Mungkinkah hati ini akan tegar
 FDm
 Sebisa mungkin, tak akan pernah
 FE
 Sayangku akan hilang

 AmDm
 If you love somebody could we be this strong
 GC
 I will fight to win our love will conquer all
 FDm
 Wouldn't risk my love, even just one night
 FE
 Our love will stay in my heart
outro (plucking)

 AmEE7Am
 My heart..My heart..My heart

Tab by Saifullah :)


END

+--------------------------------------------------------------------------+

| This file is the author's own work and represents their interpretation |
| of the song. You may only use this file for private study, scholarship, |
| or research. |
+--------------------------------------------------------------------------+


Ultimate-Guitar.Com © 2005


A Am C Dm E E7 F G
variations - click chord images
Transpose chords:
Tuning:
Cool service:
View: Size:
A  A  A
Rating:
Layout:
  • Currently 0/5 Stars.
  • 1
  • 2
  • 3
  • 4
  • 5
 
Accuracy:
  • Currently 0/5 Stars.
  • 1
  • 2
  • 3
  • 4
  • 5
 
click stars to rate
Chordie recommends:
Learn how to play guitar at JamPlay.com
Songbook:
Login to add this song to your songbook
Support the artist
Preview/buy this song
MSN Music
Why this non-profit ad?

 
login to add comments/video/corrections