Panalangin

Moonstar 88

 A#M7Am7
e|----10/---8/-----|
B|----10/---8/-----| repeat
G|----10/---9/-----|   4X
D|-----------------|
A|-----------------|
E|-----------------|


(Guitar1)

 C9
e|-----3---3--|
B|---3---3----| repeat
G|------------|  8X
D|------------|
A|-3----------|
E|------------|


(Baseline)

G|---------------|
D|---------------| repeat
A|---------------|   2X
E|-7~-7/9-5------|


verse:

 C9DmEmEsusE
e|-------3------------5------------7-----------------|
B|---------3------------6------------8---------------|
G|-----0-----0------7-----7------9-----9----2---0----|
D|---2------------7------------9------------2---1----|
A|-3------------5------------7--------------2---2----|
E|----------------------------------------------2----|


pa.. nalangin ko sa habang buhay

 CM7DmEm

e|-------3------------5------------7-------10-----------10------------|
B|---------5------------6------------8--------8/7h8p7h8----8/7h8p7h8--|
G|-----4-----4------7-----7------9-----9------------------------------|
D|---5------------7------------9--------------------------------------|
A|-3------------5------------7----------------------------------------|
E|--------------------------------------------------------------------|


makapiling ka, makasama ka, yan ang panalangin ko

 C9DmEmEsusE
e|-------3------------5------------7-----------------|
B|---------3------------6------------8---------------|
G|-----0-----0------7-----7------9-----9----2---0----|
D|---2------------7------------9------------2---1----|
A|-3------------5------------7--------------2---2----|
E|----------------------------------------------2----|


at hindi papayag ang pusong ito

 CM7DmEm
e|-------3------------5------------7-----------------------------|
B|---------5------------6------------8----7---------7h8---8---7--|
G|-----4-----4------7-----7------9-----9----8---8-------8---8-8--|
D|---5------------7------------9--------------7---7-----------7--|
A|-3------------5------------7-----------------------------------|
E|---------------------------------------------------------------|


mawala ka saking piling mahal ko iyong dinggin

chorus:

 FM7EmAsusC#m
e|----------8-------------7---------X----|
B|------------10--------------------5----|
G|------9-------------9-------7-----6----|
D|---10-------------9---9-----7-----6----|
A|-8--------------7-----------7-----X----|
E|--------8-------------------5-----X----|


at wala nang iba pang mas mahalaga

 DmEmDm7
e|-------5------------7------------5-------8-----8--|
B|---------6------------8------------6-------6------|
G|-----7-----7------9-----9------------5-------5----|
D|---7------------9--------------5------------------|
A|-5------------7--------------7--------------------|
E|---------------------------5----------------------|


sa tamis na dulot ng pag-ibig nating dalawa

 FM7EmAsusC#m
e|----------8-------------7---------X----|
B|------------10--------------------5----|
G|------9-------------9-------7-----6----|
D|---10-------------9---9-----7-----6----|
A|-8--------------7-----------7-----X----|
E|--------8-------------------5-----X----|


sana naman nakikinig ka

 DmEmDm7
e|-------5------------7------------5-------8-----8--|
B|---------6------------8------------6-------6------|
G|-----7-----7------9-----9------------5-------5----|
D|---7------------9--------------5------------------|
A|-5------------7--------------7--------------------|
E|---------------------------5----------------------|


kapag aking sasabihing minamahal kita..

(Guitar2)
 C9

e|---3---3----|
B|-----3---3--|
G|------------| repeat
D|------------|   8x
A|-3----------|
E|------------|


(baseline)

G|-------------|
D|-------------|  repeat
A|-------------|    4x
E|-8~-8/10-6---|


(ulitin po dun sa --panalangin ko, sa habang buhay...)

Chorus**:

 C#9D#mFmFsusF
e|-------4------------6--------------8-------X---X--|
B|---------4------------7--------------9-----X---X--|
G|-----6-----6------8-----8-------10-----10--3---2--|
D|---6------------8------------10------------3---3--|
A|-4------------6------------8---------------3---3--|
E|-------------------------------------------X---X--|


pa.. nalangin ko sa habang buhay

 C#M7D#mFm
e|-------4------------6------------7-----11-------11--|
B|---------6------------7------------8------9/8h9-----|
G|-----5-----5------8-----8------9-----9--------------|
D|---6------------8------------9----------------------|
A|-4------------6------------7------------------------|
E|----------------------------------------------------|


makapiling ka makasama ka yan ang panalangin ko

 C#9D#mFmFsusF
e|-------4------------6--------------8-------X---X--|
B|---------4------------7--------------9-----X---X--|
G|-----6-----6------8-----8-------10-----10--3---2--|
D|---6------------8------------10------------3---3--|
A|-4------------6------------8---------------3---3--|
E|-------------------------------------------X---X--|


at hindi papayag ang pusong ito

 C#M7D#mFmD#mD#m
e|-------4------------6------------7------------6------------6-----|
B|---------6------------7------------8------------7------------7---|
G|-----5-----5------8-----8------9-----9------8-----8------8-----8-|
D|---6------------8------------9------------8------------8---------|
A|-4------------6------------7------------6------------6-----------|
E|-----------------------------------------------------------------|


mawala ka saking piling mahal ko iyong dinggin

(ulit po dun sa panalangin ko sa habang... (Chorus**))

Outro:

(Guitar2)
 C9
e|---3---3----|         e|------|
B|-----3---3--|         B|-3----|
G|------------| repeat  G|---3~-|
D|------------|   13x   D|------|
A|-3----------|         A|------|
E|------------|         E|------|


Baseline

G|------------|        G|--------|
D|------------| repeat D|--------|
A|------------|   6x   A|--------|
E|-8--8/10-6--|        E|-8\10~--|


__End=)__

END

+--------------------------------------------------------------------------+

| This file is the author's own work and represents their interpretation |
| of the song. You may only use this file for private study, scholarship, |
| or research. |
+--------------------------------------------------------------------------+


Ultimate-Guitar.Com © 2005


A#m7 Am7 Asus C#9 C#m7 C#m C9 Cm7 D#m Dm Dm7 E Em Esus F Fm7 Fm Fsus
variations - click chord images
Transpose chords:
Tuning:
Cool service:
View: Size:
A  A  A
Rating:
Layout:
  • Currently 0/5 Stars.
  • 1
  • 2
  • 3
  • 4
  • 5
 
Accuracy:
  • Currently 0/5 Stars.
  • 1
  • 2
  • 3
  • 4
  • 5
 
click stars to rate
Chordie recommends:
Learn to play this song & others via video guitar lessons at JamPlay.com
Songbook:
Login to add this song to your songbook
Support the artist
Preview/buy this song
MSN Music
Why this non-profit ad?

 
login to add comments/video/corrections