eToCache5 = ""; ?> Todo Cambio by Camila - guitar chords, guitar tabs and lyrics - chordie

Todo Cambio

Camila

e----------------------------------------------|

B--------------------------------9/10----------|
G--------------------10-12-12-10------10-10/12-|
D------10-10h12---12---------------------------|
A-11/12--------12------------------------------|
E----------------------------------------------|
e--------------------------9/10-------------------------------|
B-------------10-------10--------10-12-13---------------------|
G-------10-12----12-10-----------------------10-10h12---------|
D-10-12-----------------------------------12----------11-10---|
A-------------------------------------------------------------|
E-------------------------------------------------------------|

 FF7A#A#m
 Todo cambió, cuando te ví      
 FF7A#A#m
 de blanco y negro a color, me convertí    
 GmAm
y fue tán fácil, quererte tanto,
 A#Am
 algo que no imaginaba,
 A#CC7A#
 fue entregarte mi amor con una mirada. 

G-2------2-3--------|
B--1/3-1------------|
e-------------------|


 FF7A#A#m
 Todo tembló, dentro de mi       
 FF7A#A#m
 el universo escribió, que fueras para mi      
 GmAm
y fué tan fácil quererte tanto
 A#Am
 algo que no imaginaba
 A#mAm
 fue perderme   ( en tu amor )
 A#
simplemente ( pasó )
 C
y todo tuyo ya soy.

 A#C
Antes que pasé más tiempo contigo amor
 FF7
tengo que decir que eres el amor de mi vida,
 A#C
antes que te ame más, escucha por favor
 FA#
dejame decir que todo te dí.

 Gm
Y no hay (como explicar)
 Am
pero menos ( dudar )
 A#C
simplemente así lo sen
 A#
cuando te ví.

G-2------2-3--------|
B--1/3-1------------|
e-------------------|


 FF7A#A#m
 Me sorprendió todo de tí      
 FF7A#A#m
 de blanco y negro al color, me converti      
 GmAm
sé que no es fácil, decir te amo
 A#Am
 yo tampoco lo esperaba
 A#Am
 pero así es el amor
 A#C7
simplemente paso y todo tuyo ya soy

CORO
 A#C
Antes que pasé más tiempo contigo amor
 FF7
tengo que decir que eres el amor de mi vida,
 A#C
antes que te ame más, escucha por favor
 FA#
dejame decir que todo te dí.

 Gm
Y no hay (como explicar)
 Am
pero menos ( dudar )
 A#C
simplemente así lo sen
 A#
cuando te ví.

riff
G-------0-0h2------------|
B-1/3-1------------------|
e------------------------|

 F
...todo cambio, cuando te ví

Espero Ke les guste si tengo algunos errores solo haganme saber:
cartablanca_evitaelexeso@hotmail.com

END

+--------------------------------------------------------------------------+

| This file is the author's own work and represents their interpretation |
| of the song. You may only use this file for private study, scholarship, |
| or research. |
+--------------------------------------------------------------------------+


Ultimate-Guitar.Com © 2005


A# A#m Am C C7 F F7 Gm
variations - click chord images
Transpose chords:
Tuning:
Cool service:
View: Size:
A  A  A
Rating:
Layout:
  • Currently 5/5 Stars.
  • 1
  • 2
  • 3
  • 4
  • 5
 
Accuracy:
  • Currently 5/5 Stars.
  • 1
  • 2
  • 3
  • 4
  • 5
 
click stars to rate
Chordie recommends:
Learn to play songs at Jamplay.com with video guitar lessons
Songbook:
Login to add this song to your songbook
Support the artist
Preview/buy this song
MSN Music
Why this non-profit ad?

 
login to add comments/video/corrections