Chordie logo
content loaded from cache

All Who Are Thirsty  Kutless















e|--------------------|-----------------|-----------------------|


B|-8-8-8-8h10-8h10-12-|-8--8h10-8h10-12-|-8-7---7h8-7h8-7-------|


G|---7-7--------------|---7-------------|-----7-----------------|


D|--------------------|-----------------|-----------------------|


A|--------------------|-----------------|-----------------------|


E|--------------------|-----------------|-----------------------|



e|-------5-7-8--------------|---------------|-----------------------|


B|---7-8-------8h10-8h10-12-|--8h10-8h10-12-|-8-8-8-10-10-10-8-8-8--|


G|-7------------------------|-7-------------|-0-0-0-0--0--0--0-0-0--|


D|--------------------------|---------------|-----------------------|


A|--------------------------|---------------|-----------------------|


E|--------------------------|---------------|-----------------------|



e|--------------|


B|-13-12-10-8---|


G|-0--0--0--0---|


D|--------------|


A|--------------|


E|--------------|








All who are th[G]irsty
all who are w[Bm]eak
come to the fou[C]ntain
dip your heart in the str[Am]eam o[B]f li[C]fe
let the pain and the so[G]rrow
be washed aw[Bm]ay,
in the wave of his m[C2]ercy
as deep cries o[Am]ut [B]to [C]deep, we sing

e|-------------------|
B|----8-8-10-8-------|
G|-7---7------7------|
D|-------------------|
A|-------------------|
E|-------------------|

***This plays during ALL the chorus-es***

Chorus:

[G]Come Lord Jesus, [C]come
[G]Come Lord Jesus, [C]come
[G]Come Lord Jesus, [C]come
[G]Come Lord Jesus, [C]come

Verse 2:

All who are th[G]irsty
all who are w[Bm]eak
come to the fou[C]ntain
dip your heart in the str[Am]eam o[B]f li[C]fe
let the pain and the so[G]rrow
be washed aw[Bm]ay,
in the wave of his m[C2]ercy
as deep cries o[Am]ut [B]to [C]deep, we sing

(Play Chorus)

[G]Won't You C[C]ome
[G]Won't You C[C]ome

[G]Nothing but your will for me I am only free You...come


***If you listen to the song then you can clearly hear the chord changes***
***with the bridge I'm just going to put how to sing it since the chords are the same***

(Play Intro tab)

Nothing but your will for me I am only free in Him
Come Lord Jesus, come
Nothing but your will for me I am only free in Him
Come Lord Jesus, come
Nothing but your will for me I am only free in Him
Come Lord Jesus, come
Nothing but your will for me I am only free in Him
Come Lord Jesus, come

***follow same chord pattern for the chorus***





END

+--------------------------------------------------------------------------+

| This file is the author's own work and represents their interpretation |
| of the song. You may only use this file for private study, scholarship, |
| or research. |
+--------------------------------------------------------------------------+


Ultimate-Guitar.Com © 2005

Important: The song above is NOT stored on the Chordie server. The original song is hosted at www.ultimate-guitar.com. Chordie works as a search engine and provides on-the-fly formatting. Chordie does not index songs against artists/composers will. To remove this song please click here.

Am B Bm C C2 G
variations - click chord images

Transpose chords

Tuning

Rating click stars to rate

Layout
Accuracy

SHARE PAGE  

You need to log in to post comments