""; ?> by Various Artists - guitar chords, guitar tabs and lyrics - chordie
 BbBbFF
   1   2   3   4   ^               ^               ^
G -------------0-3--------------------------------------------------|
D -----0-0/3-3---------0-0-1-1-3-3~------------0-0-3-3/5-5/6-6/7-7\-|
A -1-1-------------1-1-----------------0-0-3-3----------------------|
E ---------------------------------1-1------------------------------|

 BbBbFF
   1   2   3   4   ^               ^               ^
G -------------0-3--------------------------------------------------|
D -----0-0/3-3---------0-0-1-1-3-3~------------0-0-3-3/5-5/6-6/7-7\-|
A -1-1-------------1-1-----------------0-0-3-3----------------------|
E ---------------------------------1-1------------------------------|

 BbBbFF
   1   2   3   4   ^               ^               ^
G -------------0-3--------------------------------------------------|
D -----0-0/3-3---------0-0-1-1-3-3~------------0-0-3-3/5-5/6-6/7-7\-|
A -1-1-------------1-1-----------------0-0-3-3----------------------|
E ---------------------------------1-1------------------------------|

 BbBbFBb
   1   2   3   4   ^               ^               ^
G -------------0-3---------------------------------------0-3-0------|
D -----0-0/3-3---------0-0-1-1-3-3~------------0-3---0/3-------3----|
A -1-1-------------1-1-----------------0-0-3-3-----1-------------3--|
E ---------------------------------1-1------------------------------|

 BbCFBb
   ^               ^               ^               ^
G ---3---3---3---3---5---5---5---5---10--10--10--10\----------------|
D ---------------------------------------------------8---8---8---8--|
A -1---1---1---1--/3---3---3---3--/8---8---8---8--------------------|
E -------------------------------------------------6---6---6---6----|

 AbCBbF
   ^               ^               ^               ^
G --------------------------------------------------10--10--10--10--|
D ---6---6---6---6---10--10--10--10\-8---8---8---8------------------|
A -------------------------------------------------8---8---8---8----|
E -4---4---4---4--/8---8---8---8---6---6---6---6--------------------|

 FE
   ^ 
G ---10--10--10--9\-|
D ------------------|
A -8---8---8---7----|
E ------------------|

 BbBbFF
   1   2   3   4   ^               ^               ^
G -------------0-3--------------------------------------------------|
D -----0-0/3-3---------0-0-1-1-3-3~------------0-0-3-3/5-5/6-6/7-7\-|
A -1-1-------------1-1-----------------0-0-3-3----------------------|
E ---------------------------------1-1------------------------------|

 BbBbFBb
   1   2   3   4   ^               ^               ^
G -------------0-3--------------------------------------------------|
D -----0-0/3-3---------0-0-1-1-3-3~------------0h3------------------|
A -1-1-------------1-1-----------------0-0-3-3-----1-1--------------|
E ---------------------------------1-1------------------------------|

(SONG BREAKS TO VERSE *WITHOUT BASS*)(9 MEASURES)
Bb Bb F F | R |
1 2 3 4 ^ ^ ^ | E |
G -------------0-3-------------------------------------------------- |o P o|
D -----0-0/3-3---------0-0-1-1-3-3~------------0-0-3-3/5-5/6-6/7-7\- |o E o|
A -1-1-------------1-1-----------------0-0-3-3---------------------- |  A  |
E ---------------------------------1-1------------------------------ |  T  |

(SONG FINISHES WITH A FADE)
(THE UP SLIDES ARE GENERALLY HAMMERS OF THE PREVIOUS PLAYED NOTE, THEN QUICKLY SLID TO
TABBED NOTE, SPEED IS VERY IMPORTANT ON THESE PARTS)
(WHAT A GREAT LIVE SONG, I PLAY IT WITH A HEAVY CHORUS OR LIGHT FLANGER AND NORMALLY
IT ON THE BRIDGE PICKUP WITH 0 TONE)






Ab Bb C E F
variations - click chord images
Transpose chords:
Tuning:
Cool service:
View: Size:
A  A  A
Rating:
Layout:
  • Currently 0/5 Stars.
  • 1
  • 2
  • 3
  • 4
  • 5
 
Accuracy:
  • Currently 0/5 Stars.
  • 1
  • 2
  • 3
  • 4
  • 5
 
click stars to rate
Chordie recommends:
Check out JamPlay.com for online video guitar lessons
Songbook:
Login to add this song to your songbook
Support the artist
Preview/buy this song
MSN Music
Why this non-profit ad?

 
login to add comments/video/corrections