eToCache5 = ""; ?> Jenny Was A Friend Of Mine by Killers - guitar chords, guitar tabs and lyrics - chordie

Jenny Was A Friend Of Mine

Killers

-------------------------------------------------------------------

-------------------------------------------------------------------
Em: 0-7-0-9-8-0-----------------------------------------------------|
D: x-x-0-7-8-0-----------------------------------------------------|
C: 8-7-0-9-8-x-----------------------------------------------------|
G: x-x-17-16-15-15-------------------------------------------------|
--------------------------------------------------------------------|

 Em
eb|-0-0-0-0-0-0-0-0-0-0-0-0-0-0-0-0-||
bb|-8-8-8-8-8-8-8-8-8-8-8-8-8-8-8-8-||
gb|-9-9-9-9-9-9-9-9-9-9-9-9-9-9-9-9-|| 4x
db|-0-0-0-0-0-0-0-0-0-0-0-0-0-0-0-0-||
ab|-7-7-7-7-7-7-7-7-7-7-7-7-7-7-7-7-||
Eb|-0-0-0-0-0-0-0-0-0-0-0-0-0-0-0-0-||


bass comes in, then you play:

 EmD
eb|-0-0-0-0-0-0-0-0-0-0-0-0-0-0-0-0-|-0-0-0-0-0-0-0-0-0-0-0-0-0-0-0-0-|
bb|-8-8-8-8-8-8-8-8-8-8-8-8-8-8-8-8-|-8-8-8-8-8-8-8-8-8-8-8-8-8-8-8-8-|
gb|-9-9-9-9-9-9-9-9-9-9-9-9-9-9-9-9-|-7-7-7-7-7-7-7-7-7-7-7-7h9-9-9-9-|
db|-0-0-0-0-0-0-0-0-0-0-0-0-0-0-0-0-|-0-0-0-0-0-0-0-0-0-0-0-0-0-0-0-0-|
ab|-7-7-7-7-7-7-7-7-7-7-7-7-7-7-7-7-|-x-x-x-x-x-x-x-x-x-x-x-x-x-x-x-x-|
Eb|-0-0-0-0-0-0-0-0-0-0-0-0-0-0-0-0-|-x-x-x-x-x-x-x-x-x-x-x-x-x-x-x-x-|


 C
eb|-x-x-x-x-x-x-x-x-x-x-x-x-x-x-x-x-|-x-x-x-x-x-x-x-x-x-x-x-x-x-x-x-x-||
bb|-8-8-8-8-8-8-8-8-8-8-8-8-8-8-8-8-|-8-8-8-8-8-8-8-8-8-8-8-8-8-8-8-8-||
gb|-9-9-9-9-9-9-9-9-9-9-9-9-9-9-9-9-|-9-9-9-9-9-9-9-9-9-9-9-9-9-9-9-9-|| 2x (Em, D, C)
db|-0-0-0-0-0-0-0-0-0-0-0-0-0-0-0-0-|-0-0-0-0-0-0-0-0-0-0-0-0-0-0-0-0-||
ab|-7-7-7-7-7-7-7-7-7-7-7-7-7-7-7-7-|-7-7-7-7-7-7-7-7-7-7-7-7-7-7-7-7-||
Eb|-8-8-8-8-8-8-8-8-8-8-8-8-8-8-8-8-|-8-8-8-8-8-8-8-8-8-8-8-8-8-8-8-8-||


Verse 1:
 C
We took a walk that night, but it wasn't the same
 EmDC
 We had a fight on the promenade out in the rain  
 EmDC
 She said she loved me, but she had somewhere to go
 EmD
 She couldn't scream while I held I close
 C
I swore I'd never let her go

Chorus 1:

eb|------------------------------------------------------||
bb|--------10----------10----------10----12----10--------||
gb|-12-----------12----------12--------------------------||  2x
db|----12-----12----12----12----12----12----12----12-----||
ab|------------------------------------------------------||
Eb|------------------------------------------------------||


Tell me what you want to know, ah come on ah come on ah come on

eb|------------------------------------------------------|
bb|--------10----------10----------10----12----13--------|
gb|-12-----------12----------12--------------------------|
db|----12-----12----12----12----12----12----12----12-----|
ab|------------------------------------------------------|
Eb|------------------------------------------------------|


There ain't no motive for this crime
 G
eb|--15-15-15-15--15-15-15-15--15-15-15-15--15-15-15-15--||
bb|--15-15-15-15--15-15-15-15--15-15-15-15--15-15-15-15--||
gb|--16-16-16-16--16-16-16-16--16-16-16-16--16-16-16-16--|| 2x
db|--17-17-17-17--17-17-17-17--17-17-17-17--17-17-17-17--||
ab|------------------------------------------------------||
Eb|------------------------------------------------------||


'cause Jenny was a friend of mine, so come on, oh come on, oh come on, whooaaooo

 EmD
eb|-0-0-0-0-0-0-0-0-0-0-0-0-0-0-0-0-|-0-0-0-0-0-0-0-0-0-0-0-0-0-0-0-0-|
bb|-8-8-8-8-8-8-8-8-8-8-8-8-8-8-8-8-|-8-8-8-8-8-8-8-8-8-8-8-8-8-8-8-8-|
gb|-9-9-9-9-9-9-9-9-9-9-9-9-9-9-9-9-|-7-7-7-7-7-7-7-7-7-7-7-7h9-9-9-9-|
db|-0-0-0-0-0-0-0-0-0-0-0-0-0-0-0-0-|-0-0-0-0-0-0-0-0-0-0-0-0-0-0-0-0-|
ab|-7-7-7-7-7-7-7-7-7-7-7-7-7-7-7-7-|-x-x-x-x-x-x-x-x-x-x-x-x-x-x-x-x-|
Eb|-0-0-0-0-0-0-0-0-0-0-0-0-0-0-0-0-|-x-x-x-x-x-x-x-x-x-x-x-x-x-x-x-x-|


 C
eb|-x-x-x-x-x-x-x-x-x-x-x-x-x-x-x-x-|-x-x-x-x-x-x-x-x-x-x-x-x-x-x-x-x-||
bb|-8-8-8-8-8-8-8-8-8-8-8-8-8-8-8-8-|-8-8-8-8-8-8-8-8-8-8-8-8-8-8-8-8-||
gb|-9-9-9-9-9-9-9-9-9-9-9-9-9-9-9-9-|-9-9-9-9-9-9-9-9-9-9-9-9-9-9-9-9-|| 2x (Em, D, C)
db|-0-0-0-0-0-0-0-0-0-0-0-0-0-0-0-0-|-0-0-0-0-0-0-0-0-0-0-0-0-0-0-0-0-||
ab|-7-7-7-7-7-7-7-7-7-7-7-7-7-7-7-7-|-7-7-7-7-7-7-7-7-7-7-7-7-7-7-7-7-||
Eb|-8-8-8-8-8-8-8-8-8-8-8-8-8-8-8-8-|-8-8-8-8-8-8-8-8-8-8-8-8-8-8-8-8-||


Verse 2:
 C
I know my rights, I've been here all day and it's time
 EmDC
 For me to go, so let me know if it's alright
 EmDC
 I just can't take this, I swear I told you the truth
 EmD
 She couldn't scream while I held I close
 C
I swore I'd never let her go

Chorus 2:

eb|------------------------------------------------------||
bb|--------10----------10----------10----12----10--------||
gb|-12-----------12----------12--------------------------||  2x
db|----12-----12----12----12----12----12----12----12-----||
ab|------------------------------------------------------||
Eb|------------------------------------------------------||


Tell me what you want to know, ah come on ah come on ah come on

eb|------------------------------------------------------|
bb|--------10----------10----------10----12----13--------|
gb|-12-----------12----------12--------------------------|
db|----12-----12----12----12----12----12----12----12-----|
ab|------------------------------------------------------|
Eb|------------------------------------------------------|


And then you whisper in my ear
 G
eb|--15-15-15-15--15-15-15-15--15-15-15-15--15-15-15-15--||
bb|--15-15-15-15--15-15-15-15--15-15-15-15--15-15-15-15--||
gb|--16-16-16-16--16-16-16-16--16-16-16-16--16-16-16-16--||  2x
db|--17-17-17-17--17-17-17-17--17-17-17-17--17-17-17-17--||
ab|------------------------------------------------------||
Eb|------------------------------------------------------||


I know what you're doing here, so come on, oh come on, oh come on

eb|------------------------------------------------------|
bb|--------10----------10----------10----12----13--------|
gb|-12-----------12----------12--------------------------|
db|----12-----12----12----12----12----12----12----12-----|
ab|------------------------------------------------------|
Eb|------------------------------------------------------|


There ain't no motive for this crime
 G
eb|--15-15-15-15--15-15-15-15--15-15-15-15--15-15-15-15--||
bb|--15-15-15-15--15-15-15-15--15-15-15-15--15-15-15-15--||
gb|--16-16-16-16--16-16-16-16--16-16-16-16--16-16-16-16--||  2x
db|--17-17-17-17--17-17-17-17--17-17-17-17--17-17-17-17--||
ab|------------------------------------------------------||
Eb|------------------------------------------------------||


'cause Jenny was a friend of mine, oh come on, oh come on, oh come on, whooaaooo

Outro:

 Em
eb|-0-0-0-0-0-0-0-0-0-0-0-0-0-0-0-0-||
bb|-8-8-8-8-8-8-8-8-8-8-8-8-8-8-8-8-||
gb|-9-9-9-9-9-9-9-9-9-9-9-9-9-9-9-9-||8x
db|-0-0-0-0-0-0-0-0-0-0-0-0-0-0-0-0-||
ab|-7-7-7-7-7-7-7-7-7-7-7-7-7-7-7-7-||
Eb|-0-0-0-0-0-0-0-0-0-0-0-0-0-0-0-0-||


 EmD
eb|-0-0-0-0-0-0-0-0-0-0-0-0-0-0-0-0-|-0-0-0-0-0-0-0-0-0-0-0-0-0-0-0-0-|
bb|-8-8-8-8-8-8-8-8-8-8-8-8-8-8-8-8-|-8-8-8-8-8-8-8-8-8-8-8-8-8-8-8-8-|
gb|-9-9-9-9-9-9-9-9-9-9-9-9-9-9-9-9-|-7-7-7-7-7-7-7-7-7-7-7-7h9-9-9-9-|
db|-0-0-0-0-0-0-0-0-0-0-0-0-0-0-0-0-|-0-0-0-0-0-0-0-0-0-0-0-0-0-0-0-0-|
ab|-7-7-7-7-7-7-7-7-7-7-7-7-7-7-7-7-|-x-x-x-x-x-x-x-x-x-x-x-x-x-x-x-x-|
Eb|-0-0-0-0-0-0-0-0-0-0-0-0-0-0-0-0-|-x-x-x-x-x-x-x-x-x-x-x-x-x-x-x-x-|


 C
eb|-x-x-x-x-x-x-x-x-x-x-x-x-x-x-x-x-|-x-x-x-x-x-x-x-x-x-x-x-x-x-x-x-x-||
bb|-8-8-8-8-8-8-8-8-8-8-8-8-8-8-8-8-|-8-8-8-8-8-8-8-8-8-8-8-8-8-8-8-8-||
gb|-9-9-9-9-9-9-9-9-9-9-9-9-9-9-9-9-|-9-9-9-9-9-9-9-9-9-9-9-9-9-9-9-9-|| 4x (Em, D, C)
db|-0-0-0-0-0-0-0-0-0-0-0-0-0-0-0-0-|-0-0-0-0-0-0-0-0-0-0-0-0-0-0-0-0-||
ab|-7-7-7-7-7-7-7-7-7-7-7-7-7-7-7-7-|-7-7-7-7-7-7-7-7-7-7-7-7-7-7-7-7-||
Eb|-8-8-8-8-8-8-8-8-8-8-8-8-8-8-8-8-|-8-8-8-8-8-8-8-8-8-8-8-8-8-8-8-8-||


then end on Em

END

+--------------------------------------------------------------------------+

| This file is the author's own work and represents their interpretation |
| of the song. You may only use this file for private study, scholarship, |
| or research. |
+--------------------------------------------------------------------------+


Ultimate-Guitar.Com © 2005


C D Em G
variations - click chord images
Transpose chords:
Tuning:
Cool service:
View: Size:
A  A  A
Rating:
Layout:
  • Currently 1/5 Stars.
  • 1
  • 2
  • 3
  • 4
  • 5
 
Accuracy:
  • Currently 0/5 Stars.
  • 1
  • 2
  • 3
  • 4
  • 5
 
click stars to rate
Chordie recommends:
Learn to play this song & others via video guitar lessons at JamPlay.com
Songbook:
Login to add this song to your songbook
Support the artist
Preview/buy this song
MSN Music
Why this non-profit ad?

 
login to add comments/video/corrections