Beyond The Horizon

Bob Dylan

----- 

|-------------------|
|-------------------|
|-5-6-7-6-5-6-7-6---|
|-------------------|
|-3-4-5-4-3-4-5-4---|
|-------------------|
-----
 FBbmFmaj7/AGmC
|---------|---------|---------|---------|-------------|-------------|
|-6-6-6-6-|-6-6-6-6-|---------|-3-3-3-3-|-8--8--8--8--|-8--8--8--8--|
|-5-5-5-5-|-6-6-6-6-|-5-7-5-5-|-3-3-3-3-|-9--9--9--9--|-9--9--9--9--|
|-7-7-7-7-|-8-8-8-8-|-7-7-7-7-|-5-5-5-5-|-10-10-10-10-|-10-10-10-10-|
|-8-8-8-8-|-8-8-8-8-|-0-0-0-0-|---------|-10-10-10-10-|-10-10-10-10-|
|---------|---------|---------|---------|-------------|-------------|

 F
|---------|
|-6-6-6-6-|
|-5-5-5-5-|
|-7-7-7-7-|
|-8-8-8-8-|


Transition Chord F
                     |---------|
                     |-6-6-6-6-|
                     |-5-5-5-5-|
                     |-7-7-7-7-|
                     |-8-8-8-8-|
                     |---------|


 FBbmFmaj7/AGmCC7F
|---------|---------|---------|---------|-------------|---------|---------|
|-6-6-6-6-|-6-6-6-6-|---------|-3-3-3-3-|-8--8--8--8--|-8-8-8-8-|-6-6-6-6-|
|-5-7-5-5-|-6-6-6-6-|-5-7-5-5-|-3-3-3-3-|-9--9--9--9--|-9-9-9-9-|-5-5-5-5-|
|-7-7-7-7-|-8-8-8-8-|-7-7-7-7-|-5-5-5-5-|-10-10-10-10-|-8-8-8-8-|-7-7-7-7-|
|-8---8-8-|-8-8-8-8-|-0-0-0-0-|---------|-10-10-10-10-|---------|-8-8-8-8-|
|---------|---------|---------|---------|-------------|---------|---------|


Chorus:
------


 GmGm9FGmFGmGm9FBbC
|-6---5---|---------|---------|---------|-6-6-5---|------|-----|-----------|
|-8-8-8-8-|-6-6-6-6-|-8-8-8-8-|-6-6-6-6-|-8-8-8-8-|-6666-|6666-|8--8--8--8-|
|-7-7-7-7-|-5-5-5-5-|-7-7-7-7-|-5-5-5-5-|-7-7-7-7-|-5555-|7777-|9--9--9--9-|
|-8-8-8-8-|-7-7-7-7-|-8-8-8-8-|-7-7-7-7-|-8-8-8-8-|-7777-|8888-|10-10-10-10|
|---------|---------|---------|---------|---------|------|-----|-----------|
|---------|---------|---------|---------|---------|------|-----|-----------|

 FBbmFCF
|------|------|------|-------------|-------------|-------------|---------|
|-6666-|-6666-|-6666-|-8--8--8--8--|-8--8--8--8--|-8--8--8--8--|-6-6-6-6-|
|-5555-|-6666-|-5555-|-9--9--9--9--|-9--9--9--9--|-9--9--9--9--|-5-5-5-5-|
|-7777-|-7777-|-7777-|-10-10-10-10-|-10-10-10-10-|-10-10-10-10-|-7-7-7-7-|
|------|------|------|-10-10-10-10-|-10-10-10-10-|-10-10-10-10-|-8-8-8-8-|
|------|------|------|-------------|-------------|-------------|---------|


 FBbmFmaj7/A
Beyond the horizon, behind the sun
Gm c F (F)
At the end of the rainbow life has only begun
 FBbmFmaj7/A
In the long hours of twilight 'neath the stardust above
 CC7F
Beyond the horizon it is easy to love

 GmF
 My wretched heart's pounding
 GmF
 I felt an angel's kiss
 GmF
 My memories are drowning
 BbC
 In mortal bliss

 FBbmF
Beyond the horizon, in the Springtime or Fall
 CF
Love waits forever for one and for all

Beyond the horizon across the divide
'Round about midnight, we'll be on the same side
Down in the valley the water runs cold
Beyond the horizon someone prayed for your soul

I'm touched with desire
What don't I do?
I'll throw the logs on the fire
I'll build my world around you

Beyond the horizon, at the end of the game
Every step that you take, I'm walking the same

 FBbmFmaj7/AGm
|------------------------------|-----------------------|
|------------------------15----|--15-------------------|
|----10-12-(12)-12s14-14----14-|-----14----15----15-14-|
|-10---------------------------|--------15----15-------|
|------------------------------|-----------------------|
|------------------------------|-----------------------|

 CF
|-------------------------------------------------------------|
|-13-------13-------------------------------------------------|
|----15-14----12--10s12-10-12p10-9-10s12-------------14-14----|
|----------------------------------------12s14-14h15-------15-|
|-------------------------------------------------------------|
|-------------------------------------------------------------|

Beyond the horizon the night winds blow
The theme of a melody from many moons ago
The bells of St. Mary, how sweetly they chime
Beyond the horizon I found you just in time

It's dark and it's dreary
I ponder in vain
I'm weakened, I'm weary
My repentance is plain

Beyond the horizon o'er the treacherous sea
I still can't believe that you've set aside your love for me
 FBbmFmaj7

|--------------------------------------------|-----|
|-------------------13-13--13----------------|-----|
|-------10-12-12s14-----------14-15-14-(14)--|-----|
|-10-12--------------------------------------|-----|
|--------------------------------------------|-----|
|--------------------------------------------|-----|

 GmCF
|-------------------------------------------------|
|-13-------13----------------------13-------------|
|----15-14----12s10-9-10s12--12s14----12-15p14-15-|
|-------------------------------------------------|
|-------------------------------------------------|
|-------------------------------------------------|


Beyond the horizon, 'neath crimson skies
In the soft light of morning I'll follow you with my eyes
Through countries and kingdoms and temples of stone
Beyond the horizon right down to the bone

It's late in the season
Never knew, never cared
Whatever the reason
Someone's life has been spared

Beyond the horizon the sky is so blue
I've got more than a lifetime to live lovin' you

END

+--------------------------------------------------------------------------+

| This file is the author's own work and represents their interpretation |
| of the song. You may only use this file for private study, scholarship, |
| or research. |
+--------------------------------------------------------------------------+


Ultimate-Guitar.Com © 2005


Bb Bbm C C7 F Fmaj7 Fmaj7/A Gm Gm9
variations - click chord images
Transpose chords:
Tuning:
Cool service:
View: Size:
A  A  A
Rating:
Layout:
  • Currently 0/5 Stars.
  • 1
  • 2
  • 3
  • 4
  • 5
 
Accuracy:
  • Currently 0/5 Stars.
  • 1
  • 2
  • 3
  • 4
  • 5
 
click stars to rate
Chordie recommends:
Learn to play songs at Jamplay.com with video guitar lessons
Songbook:
Login to add this song to your songbook
Support the artist
Preview/buy this song
MSN Music
Why this non-profit ad?

 
login to add comments/video/corrections