Chordie logo


Stairway To Heaven   Rodrigo Y Gabriela



| Ultimate Guitar Tabs Archive - your #1 source for tabs!               |
| http://www.ultimate-guitar.com/                                       |
|                                                                       |
| Over 200,000 guitar, guitar pro and bass tabs! Also lessons, news,    |
| columns and guitar forums!                                            |


Artist: Rodrigo Y Gabriela
Song: Stairway To Heaven


Rodrigo y Gabriela - Stairway to Heaven (Led Zeppelin cover)

A few people have asked how to play this cover of 'Stairway to heaven'.  A lot of it is
to the Zeppelin original and a lot more interesting to play.  The timing isn't perfectly
out in the tab but if you listen to the track I'm sure you'll be able to get it.  The 
thing you need to know is that the * symbol means a natural harmonic.

Standard Tuning

|-5-7---8--7p5---7--5-7---8-10-8-----8-10-12-10-8-7--------------|
|---------------------------------10------13------9-10-8---------|
|---------------------------------9-------14------9-------5------|
|-----7--------6--------5---------7-------------------------7----|
|---------------------------------9---------------------------0--|
|----------------------------------------------------------------|


|-----------------5-8-7-5---7--12-----------------7-----8-10-8----|
|----------------5---------------10------------10--------------10-|
|---------------5------------------9-12-11-9-8-----------------9--|
|--------------7----------6------------------------------------7--|
|-12*--7/8-7--0--------------------------------------10--------9--|
|-----------------------------------------------------------------|


|------------------------------------------------|
|---------------------------------------------5--|
|--------------9-7--------5-----4-------------5--|
|----10---12-------10---7-----5---------------5--|
|-10----9----8--------6-----5-----5/6\5-3-----x--|
|-----------------------------------------3/5-5--|


|----------------2-0----0--------5-7---------8-10---------3-5--3-2-2-|
|-----------3-5--3---3--1-3-1---------------8------------3-----3-----|
|---------5------2------2------------------9------------4------2-----|
|-------5--------------------------------10------------5-------------|
|-0-2-3-----------------------0---------10------------5--------------|
|-------------------------------------8-------------3----------------|


|----------------------------------------------------------8-12-8-----7-|
|------------------------7-8-7-5-------------------------10------10-10--|
|---5------------------5---------7------9-10-9-7--------9----------9----|
|-------9-----------------------------7----------10---------------------|
|-----------10--5-7-5---------------8----------------0------------------|
|-5---7---8-------------------------------------------------------------|


|---------8-10--12*-------3-5--7*--------------------------------------------------------|
|--------8------12*------3-----7*--------------------------------------------------------|
|-------9---------------4--------------------5-----------8------------11------10------9--|
|-----10---------------5---------------5---3-------8---6-------11---9--------------------|
|---10----------------5--------------3---1-------6---4-------9----7-------10------11-----|
|-8-----------------3--------------1-----------4-----------7-----------------------------|


|-5-7---8-7p5---7--5-7---8-10-8------------8-10-----12-10-8---7--------------|
|--------------------------------10-9-8-7-----------13--------9-10-8---------|
|--------------------------------9--8-7-6-----------14--------9-------5------|
|-----7-------6--------5---------7--6-5-4--------0----------------------7----|
|--------------------------------9--8-7-6---------------------------------0--|
|-----------------------------------------------------------0----------------|


|----------------5-------7-------8-------2-------0--0--0----|
|---------------5-5-----5-5-----5-5-----3-3-----1-1--1--1---|
|--------------5---5---5---5---5---5---2---2---2---2--2--2--|
|-------------7-----7-6-----6-5-----5-4-----4-3-------------|
|-12*--7/8-7-0-------0-------0-------0-------0--------------|
|-----------------------------------------------------------|
             ^ gets progressively faster


|-0--------------------------------------------5--|
|---1---------------------------------5-------5---|
|-----2---------0h2/5-4-0---------5-----5----5----|
|-------3-----0-----------2-----5---5-------------|
|---------0-----------------0-------------0-------|
|-----------3-------------------------------------|


any questions? andrewbiles@hotmail.com

END

+--------------------------------------------------------------------------+
| This file is the author's own work and represents their interpretation   |
| of the song. You may only use this file for private study, scholarship,  |
| or research.                                                             |
+--------------------------------------------------------------------------+



Important: The song above is NOT stored on the Chordie server. The original song is hosted at www.ultimate-guitar.com. Chordie works as a search engine and provides on-the-fly formatting. Chordie does not index songs against artists/composers will. To remove this song please click here.

This song is displayed as text-only. Transposing and tuning is only available for chordpro-songs.

Login - add to songbook

Rating click stars to rate

Layout
Accuracy

SHARE PAGE  




You need to log in to post comments