Chordie logo

Master Exploder   Tenacious D



| Ultimate Guitar Tabs Archive - your #1 source for tabs!               |
| http://www.ultimate-guitar.com/                                       |
|                                                                       |
| Over 200,000 guitar, guitar pro and bass tabs! Also lessons, news,    |
| columns and guitar forums!                                            |


Artist: Tenacious D
Song: Master Exploder


Tuning: EADGBE

a lil bit more of the song than anybody has managed so far,its most of the song except 
the fantastic harmonised solo.. anybody work that out yet? your a legend if you have.

Intro (acoustic, continues throughout song)

e|---------------------------------------------------------------------------|
B|---------------------------------------------------------------------------|
G|-----999999999-9-xx-----5-----7------7-------------------------------------|
D|-----999999999-9-xx---5-5-5---7--7-7-7-------------------------------------|
A|-----777777777-7-xx---5-3-5---5--7-7-5-------------------------------------|
E|----------------------3---3------5-5---------------------------------------|

KG's kickass riff repeated a couple of times througout the song.

e|--------12------------12------------------------------12-----------------|
B|-----------15p12-15b-----15p12----------------------------15p12--15p12---|
G|----14b------------------------14bu(bd)p12----12--14b--------------------|
D|-------------------------------------------14----------------------------|
A|-------------------------------------------------------------------------|
E|-------------------------------------------------------------------------|

e|-----12-------------12-------15h17p15----15h17p15---15h17p15---15h17p15----|
B|--------15p12--15b--------------------17---------17---------17---------17--|
G|-14b-----------------------------------------------------------------------|
D|---------------------------------------------------------------------------|
A|---------------------------------------------------------------------------|
E|---------------------------------------------------------------------------|

e|------12-----------12h15p12----12h15p12----12h15p12----12-------------|
B|--15b----15p12--------------15----------15----------15----15p12-------|
G|---------------14------------------------------------------------14s--|
D|----------------------------------------------------------------------|
A|----------------------------------------------------------------------|
E|----------------------------------------------------------------------|

hope that helps, i love this song.

| /  slide up
| \  slide down
| h  hammer-on
| p  pull-off
| ~  vibrato
| +  harmonic
| x  Mute note

END

+--------------------------------------------------------------------------+
| This file is the author's own work and represents their interpretation   |
| of the song. You may only use this file for private study, scholarship,  |
| or research.                                                             |
+--------------------------------------------------------------------------+




Important: The song above is NOT stored on the Chordie server. The original song is hosted at www.ultimate-guitar.com. Chordie works as a search engine and provides on-the-fly formatting. Chordie does not index songs against artists/composers will. To remove this song please click here.

This song is displayed as text-only. Transposing and tuning is only available for chordpro-songs.

Login - add to songbook

Rating click stars to rate

Layout
Accuracy

SHARE PAGE  



You need to log in to post comments