Christmas Time Is Here

Misc. Christmas

 CFCF
|-12--8-8---------------|-12--8-8---------------|
|----------------10--10-|----------------10--10-|
|-------------12-----10-|-------------12-----10-|
|-----------------------|-----------------------|
|-------------10-----8--|-------------10-----8--|
|-8---------------------|-8---------------------|


Part II:

 DmCA#DmC
|-5-------------0--3-------------1----1-----1--3-|
|----6-6--------------5-5-----------3---3--------|
|----------------------------------------------0-|
|-------------------------------------------0----|
|-5----------4-----3----------2-----1----------3-|
|------------------------------------------------|


Part I:

 CFCF
|-12--8-8---------------|-12--8-8---------------|
|----------------10--10-|----------------10--10-|
|-------------12-----10-|-------------12-----10-|
|-----------------------|-----------------------|
|-------------10-----8--|-------------10-----8--|
|-8---------------------|-8---------------------|


Part II:

 DmCA#DmC
|-5-------------0--3-------------1----1-----1--3-|
|----6-6--------------5-5-----------3---3--------|
|----------------------------------------------0-|
|-------------------------------------------0----|
|-5----------4-----3----------2-----1----------3-|
|------------------------------------------------|


Part III:

 FmC#maj7FmC#maj7
|-8-------------8-8-|-8-------------9-8-|
|----9-9------------|----9-9------------|
|-----------------6-|-----------------6-|
|------------10---6-|------------10---6-|
|-------------------|-------------------|
|-8-----------------|-8-----------------|


 FFaddDGmAmG
|-8--------------8--------------6--3-3-3---5--5-3-|
|----10-10----------10-10-------------------------|
|-10-------------10-------------------------------|
|---------------------------10--------------------|
|--------------0----------------------------------|
|-8--------------10---------8---3--------5------3-|


Part I:

 CFCF
|-12--8-8---------------|-12--8-8---------------|
|----------------10--10-|----------------10--10-|
|-------------12-----10-|-------------12-----10-|
|-----------------------|-----------------------|
|-------------10-----8--|-------------10-----8--|
|-8---------------------|-8---------------------|


Outro:

 DmCA#DmC
|-5-------------0--3-------------1----1-----1--3-|
|----6-6--------------5-5-----------3---3------1-|
|----------------------------------------------0-|
|-------------------------------------------0--2-|
|-5----------4-----3----------2-----1----------3-|
|------------------------------------------------|


END

+--------------------------------------------------------------------------+

| This file is the author's own work and represents their interpretation |
| of the song. You may only use this file for private study, scholarship, |
| or research. |
+--------------------------------------------------------------------------+


Ultimate-Guitar.Com © 2005


A# Am C C#maj7 Dm F FaddD Fm G Gm
variations - click chord images
Transpose chords:
Tuning:
Cool service:
View: Size:
A  A  A
Rating:
Layout:
  • Currently 0/5 Stars.
  • 1
  • 2
  • 3
  • 4
  • 5
 
Accuracy:
  • Currently 0/5 Stars.
  • 1
  • 2
  • 3
  • 4
  • 5
 
click stars to rate
Chordie recommends:
Learn to play songs at Jamplay.com with video guitar lessons
Songbook:
Login to add this song to your songbook
Support the artist
Preview/buy this song
MSN Music
Why this non-profit ad?

 
login to add comments/video/corrections