eToCache5 = ""; ?> Rock Star by Nickelback - guitar chords, guitar tabs and lyrics - chordie

Rock Star

Nickelback

E---------------------------------------------------------------------------|

B---------------------------------------------------------------------------|
G---------------------------------------------------------------------------|
D-5---5---5-5-5-5--10---10---10-10-10-10--3---3---3-3-3-3---5---5--5-5-5-5--|
A-5---5---5-5-5-5--10---10---10-10-10-10--3---3---3-3-3-3---5---5--5-5-5-5--|
D-5---5---5-5-5-5--10---10---10-10-10-10--3---3---3-3-3-3---5---5--5-5-5-5--|
E-----------------------|
B-----------------------|
G-----------------------|
D-8---8---8-8-8-8--10~--|
A-8---8---8-8-8-8--10~--|
D-8---8---8-8-8-8--10~--|
E---------------------------------------------------------------------------|
B---------------------------------------------------------------------------|
G---------------------------------------------------------------------------|
D-5--5--5-5-5-5-8--8--8-8-8-8-10--10--10-10-10-10-13--13--3--3--------------|
A-5--5--5-5-5-5-8--8--8-8-8-8-10--10--10-10-10-10-13--13--3--3--------------|
D-5--5--5-5-5-5-8--8--8-8-8-8-10--10--10-10-10-10-13--13--3--3--------------|
E---------------------------------------------------------|
B---------------------------------------------------------|
G---------------------------------------------------------|
D-5-5-5-5-8-8-8-8-10-10-10-10-13-13-3-3-----8~--10~---5~--|
A-5-5-5-5-8-8-8-8-10-10-10-10-13-13-3-3-----8~--10~---5~--|
D-5-5-5-5-8-8-8-8-10-10-10-10-13-13-3-3-----8~--10~---5~--|

 DDD
E------------------|
B------------------|
G------------------|
D-8~--10~--5~------|
A-8~--10~--5~------|
D-8~--10~--5~------|


repeat verse twice

repeat pre-chorus

repeat chorus three times

Guitar 2:bridge (low distortion)
 DDDDDDDDDDDDDD
E--------------------------------------------------------|
B--------------------------------------------------------|
G--------------------------------------------------------|
D-8-8-8-8--3-3-3-3--8-8-8-8--10~-3~----------------------|
A-8-8-8-8--3-3-3-3--8-8-8-8--10~-3~----------------------|
D-8-8-8-8--3-3-3-3--8-8-8-8--10~-3~----------------------|


Guitar 1: beggining of chorus(clean)
D D D U D U D D D U D U D D D U D U D D D D (play once)
E---------------------------------------------------------------------------|
B---------------------------------------------------------------------------|
G---------------------------------------------------------------------------|
D-5--5--5-5-5-5-8--8--8-8-8-8-10--10--10-10-10-10-13--13--3-3---------------|
A-5--5--5-5-5-5-8--8--8-8-8-8-10--10--10-10-10-10-13--13--3-3---------------|
D-5--5--5-5-5-5-8--8--8-8-8-8-10--10--10-10-10-10-13--13--3-3---------------|


Guitar 2:the rest of the chorus(low distortion)
D D D D D D D D D D D D D D D D (play twice)
E--------------------------------------------------------|
B--------------------------------------------------------|
G--------------------------------------------------------|
D-5-5-5-5-8-8-8-8-10-10-10-10-13-13-3-3----8~--10~--5~---|
A-5-5-5-5-8-8-8-8-10-10-10-10-13-13-3-3----8~--10~--5~---|
D-5-5-5-5-8-8-8-8-10-10-10-10-13-13-3-3----8~--10~--5~---|


Guitar 1:outro(clean)

E----------------------|
B----------------------|
G----------------------|
D-8~--10~--5~----------|
A-8~--10~--5~----------|
D-8~--10~--5~----------|


words to this song:
intro/verse:I'm through a standin in line to clubs I'll never get in, its like the
of the ninthe and I'm never guna win, this life hasn't turned out quite the way i want
to
I want a brand new house on an episode of Cribs, and a bathroom i can play baseball in,
a king sized tub big enough for ten plus me. I'll need a credit card thats got no
and big black jet with a bathroom in it, i'm guna join the mile high club at
thousand feet. I want a new tool bus full of old guitars, my star on hollywood
someware
Chere and James Dean is fine for me. I'm guna trade this lif for fortune and fame i'll
cut my hair and change my name.

chorus:
because we all just want to be a big rock star, and livin hill top castles drivin
cars, the girls come easy and the drugs come cheap, I'll stay skiny cuz we just wont
 and
 hang out at the coolest bars, V.I.P with the movie stars, every good gold diggers guna
up there, every playboy bunnie with her bleach blond hair, hey hey wana be a rock star.

verse 2:
I wana be great like Elvis without the tassels, everybody gota love all the beat up
I'll sign a couple autographs so I can eat my meals for free. I'm guna dress my ass with the
fashions, get a front door key to the playboy mansion, guna date a center fold that love
blow my money for me. I'm guna trade this life for fortune and fame I'll even cut my
and change my name.

chorus:
because we all just wana be a big rock star, livin hill top castles livin fifteen cars,
girls come easy and the drugs come cheap, I'll stay skiny cuz we just wont eat, and
hang out in the coolest bars, V.I.P with the movie stars, every good gold diggers guna
up there, every playboy bunnie with her bleach blond hair,and we'll hide out in the
rooms, with the ladies dictionary of todays who's who,they'll get you anything with that
smile, everybodys got a drug dealer on speed dial, hey hey i want to be a rock star.

bridge:

i'm guna sing those songs that will bend the sense, I'm guna pop my pills from a pez
get washed up singers writin all my songs, lip sinc em every night so i dont get it wrong.

2nd chorus again.

END

+--------------------------------------------------------------------------+

| This file is the author's own work and represents their interpretation |
| of the song. You may only use this file for private study, scholarship, |
| or research. |
+--------------------------------------------------------------------------+


Ultimate-Guitar.Com © 2005


Corrected by sixthstring. View original
D
variations - click chord images
Transpose chords:
Tuning:
Cool service:
View: Size:
A  A  A
Rating:
Layout:
  • Currently 2.9/5 Stars.
  • 1
  • 2
  • 3
  • 4
  • 5
 
Accuracy:
  • Currently 3.8/5 Stars.
  • 1
  • 2
  • 3
  • 4
  • 5
 
click stars to rate
Chordie recommends:
Check out these online guitar lessons
Songbook:
Login to add this song to your songbook
Support the artist
Preview/buy this song
MSN Music
Why this non-profit ad?

 
login to add comments/video/corrections

groberts (report comment to admin):
Please add the chords for an accoustic guitar.  Thank you!