Great Expectations

Steven Curtis Chapman

eb---0----0-----0---3------|---0----0-----0---3------|

Bb---1-3--0-3---1-3--------|---1-3--1-3---1-3--------|
Gb--------------2----------|---2----2-----2----------|
Db-------------------------|---3----3-----3----------|
Ab-------------------------|-------------------------|
Eb-------------------------|-------------------------|
-----C Em7 Am-----------------------------------| Fmaj7

 CEm7Am
 The morning finds me here at heaven's door
 CEm7Am
 A place I've been so many times before
 CEm7Am
 Familiar thoughts and phrases start to flow
 CEm7AmFmaj7
 And carry me to places that I know so well
 CEm7Am
 But dare I go where I don't understand
 CEm7Am
 And do I dare remember where I am
 CEm7Am
 stand before the great eternal throne
 CEm7Am
 The one that God himself is seated on

(Guitar comes in)
 F
 And I, I've been invited as a son
 Fm
 Oh I, I've been invited to come and

 CF
 Believe the unbelievable
 CF
 Receive the inconceivable
 CEAmG
 And see beyond my wildest imagination  
 FCEm7AmCEm7Am
 Lord I come with great expectations                 

Bridge: (played pretty fast)

e-----------------------------------------|
B-----------------------------------------|
G--10-7-9---10-7-9---10-12-14--9-9-10-10--|
D--10-7-9---10-7-9---10-12-14--9-9-10-10--|
A--8--5-7---8--5-7---8--10-12--7-7-8--8---|
E-----------------------------------------|
e------------------------------------------------------|
B------------------------------------------------------|
G--10-7-9---10-7-9---10-12-14--9-7-5-7-3---3-5-2-------|
D--10-7-9---10-7-9---10-12-14--9-7-5-7-3---3-5-2-5-3---|
A--8--5-7---8--5-7---8--10-12--7-5-3-5-1---1-3-0-5-3---|
E------------------------------------------------3-1---|


Standard with capo on 2, everything relative to that

Piano part
e------------------0--------|------------------0---|---1--------|
B-----0----0-----0----------|---2-0--2-0---2-0-----|---2--------|
G---6----6-----6------------|---2----2-----2-------|---1--------|
D---7----6-----4------------|---0----0-----0-------|---3--------|
A---0-----------------------|----------------------|------------|
E---------------------------|----------------------|------------|
----A    C#m7  F#m              Dmaj7(add9)         ------------|C# playable like this


 AC#m7F#m
 The morning finds me here at heaven's door
 AC#m7F#m
 A place I've been so many times before
 AC#m7F#m
 Familiar thoughts and phrases start to flow
 AC#m7F#mDmaj7(add9
 And carry me to places that I know so well
 AC#m7F#m
 But dare I go where I don't understand
 AC#m7F#m
 And do I dare remember where I am
 AC#m7F#m
 stand before the great eternal throne
 AC#m7F#m
 The one that God himself is seated on

(Guitar comes in)
 D
 And I, I've been invited as a son
 Dm
 Oh I, I've been invited to come and

 AD
 Believe the unbelievable
 AD
 Receive the inconceivable
A C#** F#m E
And see beyond my wildest imagination
 DAC#m7F#mAC#m7F#m
 Lord I come with great expectations                   

Bridge:
e--------------------------------------|
B--------------------------------------|
G--7-4-6---7-4-6---7-9-11--6-6-7-7-----|
D--7-4-6---7-4-6---7-9-11--6-6-7-7-----|
A--5-2-4---5-2-4---5-7-9---4-4-5-5-----|
E--------------------------------------|
e---------------------------------------------------|
B-----------------------------------------------3---|
G--7-4-6---7-4-6---7-9-11--6-4-2-4--------------2---|
D--7-4-6---7-4-6---7-9-11--6-4-2-4-5---5-7-4--2-0---|
A--5-2-4---5-2-4---5-7-9---4-2-0-2-5---5-7-4--2-0---|
E----------------------------------3---3-5-2--0-----|


END

+--------------------------------------------------------------------------+

| This file is the author's own work and represents their interpretation |
| of the song. You may only use this file for private study, scholarship, |
| or research. |
+--------------------------------------------------------------------------+


Ultimate-Guitar.Com © 2005


A Am C C#m7 D Dm E Em7 F F#m Fm Fmaj7 G
variations - click chord images
Transpose chords:
Tuning:
Cool service:
View: Size:
A  A  A
Rating:
Layout:
  • Currently 0/5 Stars.
  • 1
  • 2
  • 3
  • 4
  • 5
 
Accuracy:
  • Currently 0/5 Stars.
  • 1
  • 2
  • 3
  • 4
  • 5
 
click stars to rate
Chordie recommends:
Get acoustic guitar lessons and electric guitar lessons at JamPlay.com
Songbook:
Login to add this song to your songbook
Support the artist
Preview/buy this song
MSN Music
Why this non-profit ad?

 
login to add comments/video/corrections