eToCache5 = ""; ?> How To Save A Life by Fray - guitar chords, guitar tabs and lyrics - chordie

How To Save A Life

Fray

E---------------------------------------------|

B--7---3-3-3---10---3-3-3---12---3-3-3---7--10|
G---------------------------------------------|
D---------------------------------------------|
A---------------------------------------------|
E---------------------------------------------|

 GD/F#
 Step one you say we need to talk
 EmDD/F#G
He walks you say sit down it's just a talk
 D/F#Em
He smiles politely back at you
 DD/F#G
You stare politely right on through
 D/F#Em
Some sort of window to your right
 DD/F#G
As he goes left and you stay right
 D/F#Em
Between the lines of fear and blame
 DD/F#
And you begin to wonder why you came

Chorus
 CDEm
Where did I go wrong, I lost a friend
 GD/F#
Somewhere along in the bitterness
 CDEm
And I would have stayed up with you all night
 GD/F#C
Had I known how to save a life

Bridge 1
E---------------------------------------------|
B--7---3-3-3---10---3-3-3---12---3-3-3---7--10|
G---------------------------------------------|
D---------------------------------------------|
A---------------------------------------------|
E---------------------------------------------|


Verse 2
 GD/F#
 Let him know that you know best
 EmDD/F#
Cause after all you do know best
 D/F#Em
Try to slip past his defense 
 DD/F#
Without granting innocence
 D/F#Em
Lay down a list of what is wrong
 DD/F#G
The things you've told him all along

 D/F#Em
And pray to God he hears you
 DD/F#
And pray to God he hears you

Chorus
 CDEm
 Where did I go wrong, I lost a friend
 GD/F#
Somewhere along in the bitterness
 CDEm
And I would have stayed up with you all night
 GD/F#C
Had I known how to save a life

Bridge 1
E---------------------------------------------|
B--7---3-3-3---10---3-3-3---12---3-3-3---7--10|
G---------------------------------------------|
D---------------------------------------------|
A---------------------------------------------|
E---------------------------------------------|


Verse 2
 GD/F#
 As he begins to raise his voice
 EmDD/F#G
You lower yours and grant him one last choice
 D/F#Em
Drive until you lose the road
 DD/F#G
Or break with the ones you've followed
 D/F#Em
He will do one of two things
 DD/F#G
He will admit to everything
 D/F#Em
Or he'll say he's just not the same
 DD/F#
And you'll begin to wonder why you came

Chorus
 CDEm
Where did I go wrong, I lost a friend
 GD/F#
Somewhere along in the bitterness
 CDEm
And I would have stayed up with you all night
 GD/F#C
Had I known how to save a life

Chorus
 CDEm
Where did I go wrong, I lost a friend
 GD/F#
Somewhere along in the bitterness
 CDEm
And I would have stayed up with you all night
 GD/F#C
Had I known how to save a life

Bridge 1 How To Save A Life...
E--------------------------------------------------|
B--7---3-3-3---10---3-3-3---12---3-3-3---7--10-----|
G--------------------------------------------------|
D--------------------------------------------------|
A--------------------------------------------------|
E--------------------------------------------------|


Bridge 2 How to save a Life...

E--------------------------------------------------|
B--3-3-3---1--0--------------3-3-3---1--0----------|
G--------2-------0-----------------2-----0---------|
D--------------------------------------------------|
A--------------------------------------------------|
E--------------------------------------------------|

Chorus
 CDEm
Where did I go wrong, I lost a friend
 GD/F#
Somewhere along in the bitterness
 CDEm
And I would have stayed up with you all night
 GD/F#C
Had I known how to save a life

Chorus
 CDEm
Where did I go wrong, I lost a friend
 GD/F#
Somewhere along in the bitterness
 CDEm
And I would have stayed up with you all night
 GD/F#C
Had I known how to save a life

Bridge 1 How To save A Life...
E--------------------------------------------------|
B--7---3-3-3---10---3-3-3---12---3-3-3---7--10---3-|
G--------------------------------------------------|
D--------------------------------------------------|
A--------------------------------------------------|
E--------------------------------------------------|


Bridge 2 How to save a Life...
E--------------------------------------------------|
B--3-3-3---1--0--------------3-3-3---1--0----------|
G--------2-------0-----------------2-----0---------|
D--------------------------------------------------|
A--------------------------------------------------|
E--------------------------------------------------|


Bridge 3
E--------------------------------------------------|
B--7---3-3-3---10---3-3-3---12---3-3-3---7--10---8-|
G--------------------------------------------------|
D--------------------------------------------------|
A--------------------------------------------------|
E--------------------------------------------------|


It's rather long, but that's all of it.
Questions, Problems, Amendments email me at bgbnbigben@gmail.com

END

+--------------------------------------------------------------------------+

| This file is the author's own work and represents their interpretation |
| of the song. You may only use this file for private study, scholarship, |
| or research. |
+--------------------------------------------------------------------------+


Ultimate-Guitar.Com © 2005


C D D/F# Em G
variations - click chord images
Transpose chords:
Tuning:
Cool service:
View: Size:
A  A  A
Rating:
Layout:
  • Currently 4.1/5 Stars.
  • 1
  • 2
  • 3
  • 4
  • 5
 
Accuracy:
  • Currently 3.9/5 Stars.
  • 1
  • 2
  • 3
  • 4
  • 5
 
click stars to rate
Chordie recommends:
Check out JamPlay.com for online video guitar lessons
Songbook:
Login to add this song to your songbook
Support the artist
Preview/buy this song
MSN Music
Why this non-profit ad?

 
login to add comments/video/corrections