Ipagpatawad Mo

Mayonnaise

eb|--5--------4----2--|

Bb|--7--------5----2--|
Gb|--6--------4----2--|
Db|--7--------6----4--|
Ab|--5-----7--4----4--|
Eb|----7h9---------2--|

 DM7C#m7F#m
Ipagpatawad mo, aking kapangahasan
 DM7C#mF#m
Binibini ko, sana'y maintindihan
 BmC#mF#m7-F#m
Alam kong kailan lang tayo nagkatagpo
 Bm7C#m7F#m7-F#m
Ngunit para lang sa'yo, ayaw nang lumayo
 Bm7E7susE7
Ipagpatawad mo, ako ma'y naguguluhan

Verse 2: Verse 1 chords
'Di ka masisi, na ako ay pagtakhan
'Di na dapat ako pagtiwalaan
Alam kong kailan lang tayo nagtagpo
Ngunit para lang sa'yo, ayaw nang lumayo
 E7sus-E7E7sus-E7
Ipagpatawad mo minahal kita agad       

Chorus:
 DM7C#mF#m
 Hah, minahal kita agad
 DM7C#mF#m
 Hah, minahal kita agad
 Bm7E7sus-E7E7sus-E7
Ipagpatawad mo, ohh         

Adlib: CM7 GM7 CM7 B7sus B7 (2x)
eb|-----------------------------------------------------------------------|
Bb|--------------------------------------------------------------------9--|
Gb|-------7-------------------------7-------------------------------------|
Db|-9-9-7---10-9-7-9----------9-9-7---10-9-7-9-9-9-10-9--7p6-7-7-7/9-9----|
Ab|------------------5-5-7-5----------------------------------------------|
Eb|-----------------------------------------------------------------------|


Bridge:
 EM7F#m
 Minahal kita    
 EM7F#m
 Kay tagal-tagal 
 AM7G#mC#m
Sana nama'y ipagpatawad mo
 AM7G#mC#m
Ang malabis na kabilisan ko
 F#mB7sus-B7B7sus-B7
Ngunit ang lahat ng ito'y totoo, totoo

Outro:
 EM7B7sus
(Ipagpatawad mo) hah, minahal kita agad
 EM7B7sus
(Ipagpatawad mo) hah, minahal kita agad
 EM7B7sus
(Ipagpatawad mo) hah, minahal kita agad
 EM7B7sus
(Ipagpatawad mo) hah... 
 EM7
 Ipagpatawad mo, (ipagpatawad mo)
 B7sus
 Ipagpatawad mo, (ipagpatawad mo)
 EM7
 Ipagpatawad mo, (ipagpatawad mo)
 B7sus
 Ipagpatawad mo, (ipagpatawad mo)
 EM7
 Ipagpatawad mo, (ipagpatawad mo)
 B7susEM7
 Ipagpatawad mo, (ipagpatawad mo)  

tabbed by: Antonin Deala
email: antonindeala@yahoo.com

END

+--------------------------------------------------------------------------+

| This file is the author's own work and represents their interpretation |
| of the song. You may only use this file for private study, scholarship, |
| or research. |
+--------------------------------------------------------------------------+


Ultimate-Guitar.Com © 2005


Am7 B7sus Bm Bm7 C#m C#m7 Dm7 E7 E7sus Em7 F#m G#m
variations - click chord images
Transpose chords:
Tuning:
Cool service:
View: Size:
A  A  A
Rating:
Layout:
  • Currently 3/5 Stars.
  • 1
  • 2
  • 3
  • 4
  • 5
 
Accuracy:
  • Currently 3/5 Stars.
  • 1
  • 2
  • 3
  • 4
  • 5
 
click stars to rate
Chordie recommends:
Learn to play guitar with video-based, online guitar lessons at JamPlay.com
Songbook:
Login to add this song to your songbook
Support the artist
Preview/buy this song
MSN Music
Why this non-profit ad?

 
login to add comments/video/corrections