eb-0---0------0---0-----------0------0---0------------------------3----|

Bb-------3----------2-----------0----------3----------------3----------|
Gb---2-----2----2-----2----2------2----2-----2----------------0--------|
Db-0----------0----------0---0-------0--------------------2-----2------|
Ab---------------------------------------------------------------------|
Db-----------------------------------------------5--2/4--2----------2--|
---Dadd9 Dmaj7 Dsus Dadd9-----------------------------| G D/F# Em7
eb----------------------------------------------------------------------|
Bb-----3----------2----------0----------3--------------------3-----3----|
Gb---2---2-2----2---2-2----0---0-0----2---2-2----0---------0---0-----0--|
Db--------------------------------------------------2/4--2-------2------|
Ab-0----------0----------0----------0-----------------------------------|
Db-0----------0----------0----------0-----------------------------------|
---Dadd9 Dmaj7 Dsus Dadd9-------------------------------| G D/F# Em7
eb---------------0-----------0h2---------------------------------2-----|
Bb-----3---------------3----------------3--------3---------3-------3---|
Gb-------2-----2-----2-----2--------------4--------2---------0---------|
Db---2-----2-------------0---0--------4-----4---2----2---0-----0-------|
Ab-0---------0-------------------4--2---------0------------------------|
Db-----------------0-----------------------------------5---------------|
---Asus D Bm Asus Gmaj7
eb---------------------------------------------------------------------0--|
Bb-----2---------2-------3---------3---------3---------0---------3-----2--|
Gb-------2-----3---3-------4---------2---------0---------0---------2---2--|
Db---2-----2-----------4-----4---2-----2---2---------0-----0---2-----2-2--|
Ab-0---------1-------2---------0-----------------------------0---------0--|
Db---------------------------------------2-------4-5----------------------|
---A F#/A# Bm Asus Em7 G Asus A
eb-----2---------2---------------0h2---0----------2---------2---------------|
Bb-------3---------3-------3-------------3----------3---------3-------3-----|
Gb---------0---------0---2---2-------------2----------0---------0---2---2---|
Db---0---------0---------------0-----0----------0---------0---------------0-|
Ab--------------------------------------------------------------------------|
Db-5---------5---------0----------------------5---------5---------0---------|
---Gmaj7 D Gmaj7 D
eb----------2---------2------------------------------------------------2----------|
Bb------------3---------3--------2---------2------3---------3------------3----3---|
Gb-4-3----0-----0---0-----0--------2-----3----------4---------2------0-----0--0---|
Db-5-4-------------------------2-----2----------4-----4---2-----2-------------0---|
Ab-5-4-----------------------0---------1------2---------0-------------------------|
Db------2---------2------------------------------------------------5--------------|
---G F# Em7 A F#/A# Bm Asus Gmaj7
eb--------------0---------------2--------|
Bb-------3------2--------5------4--------|
Gb---------2----2----------4----4--------|
Db-----2-----2--2------4-----4--4--------|
Ab---0----------0----2----------2--------|
Db---------------------------------------|
-----Asus A Bsus B
eb------0---------0---------0----------0--------------------------2----|
Bb--------0---------4---------0----0-----0------------------2----------|
Gb----4-----4---4-----4---2-----2----1-----1------------------2--------|
Db--2---------2---------2---------2-----------------------4-----4------|
Ab---------------------------------------------------------------------|
Db--------------------------------------------7---4/6---4-----------4--|
----Eno3 Emaj7 Esus E------------------------------------| A E/G# F#m
eb--0---------0---------0---------0-----------------------------------|
Bb--0---------4---------0---------0-------------------------2------2--|
Gb--4---------4---------2---------1-----------2-----------2---2----2--|
Db--2---------2---------2---------2---------------4/6---4-------4--4--|
Ab--2---------2---------2---------2-----------------------------------|
Db--------------------------------------------------------------------|
----Eno3 Emaj7 Esus E-----------------------------------| A E/G# F#m
eb-----------------------0-------------------------------------------------|
Bb------5---------4--------0------------5---------5---------2--------------|
Gb--------4------------------2--1---------6---------4---------2-------2----|
Db----4-----4---4------2--------2-----6-----6---4-----4---2-----2---2------|
Ab--2---------2------2----------2---4---------2---------0---------0--------|
Db-------------------------------------------------------------------------|
----Bsus B Esus E C#m Bsus A
eb-------------------------------------------------------------------------0--|
Bb------4---------4--------5---------5------------------2-----------3------2--|
Gb--------4-----5---5--------6---------4-------2----------2-----------2----2--|
Db----4-----4------------6-----6---4-----4---4--------2-----2-----2-----2--2--|
Ab--2---------3--------4---------2------------------0-----------0----------0--|
Db-----------------------------------------4------6---------------------------|
----B G#/C C#m Bsus F#m A Asus A

 Dadd9Dmaj7DsusDadd9
 Sometimes his eyes were gentle and filled with laughter 
 GD/F#Em7
 And sometimes they cried
 Dadd9Dmaj7DsusDadd9
 Sometimes there was a fire of holy anger
 GD/F#Em7
 In Jesus' eyes

 AsusD
 But the eyes that saw hope in the hopeless
 BmAsusGmaj7
 That saw through the fault to the need
 AF#/A#BmAsus
 Are the same eyes that look down from heaven 
 Em7GAsusA
 Into the deepest part of you and me    

Chorus:
 Gmaj7D
 And his eyes are always upon us
 Gmaj7D
 His eyes never close in sleep
 GF#Em7AF#/A#BmAsusGmaj7
 And no matter where you go you will always be in his eyes      

Verse 2:
 Dadd9Dmaj7DsusDadd9
 Sometimes his voice comes calling like rolling thunder 
 GD/F#Em7
 Or like driving rain
 Dadd9Dmaj7DsusDadd9
 And sometimes his voice is quiet and we start to wonder 
 GD/F#Em7
 If he knows our pain
 AsusD
 But he who spoke peace to the water
 BmAsusGmaj7
 Cares more for our heart than the waves
 AF#/A#BmAsus
 And the voice that once said  you're forgiven   
 Em7GAsusABsusB
 Still says  you're forgiven  today,   today   

KEY CHANGE EVERYBODY

Eno3 Emaj7 Esus E
Sometimes I look above me when the stars are shining
 AE/G#F#m
 And I feel so small
Eno3 Emaj7 Esus E
How could the God of heaven and all creation
 AE/G#F#m
 Know I'm here at all
 BsusBEsusE
 But then in the silence he whispers 
 C#mBsusA
 My child I created you too
 BG#/CC#mBsus
 And you're my most precious creation  
 F#mAAsusA
 I even gave my Son for you   

(out of key change, back into chorus)

END

+--------------------------------------------------------------------------+

| This file is the author's own work and represents their interpretation |
| of the song. You may only use this file for private study, scholarship, |
| or research. |
+--------------------------------------------------------------------------+


Ultimate-Guitar.Com © 2005


A Asus B Bm Bsus C#m D D/F# Dadd9 Dmaj7 Dsus E E/G# Em7 Esus F# F#/A# F#m G G#/C Gmaj7
variations - click chord images
Transpose chords:
Tuning:
Cool service:
View: Size:
A  A  A
Rating:
Layout:
  • Currently 0/5 Stars.
  • 1
  • 2
  • 3
  • 4
  • 5
 
Accuracy:
  • Currently 0/5 Stars.
  • 1
  • 2
  • 3
  • 4
  • 5
 
click stars to rate
Chordie recommends:
Get acoustic guitar lessons and electric guitar lessons at JamPlay.com
Songbook:
Login to add this song to your songbook
Support the artist
Preview/buy this song
MSN Music
Why this non-profit ad?

 
login to add comments/video/corrections