"yes"; ?> Succexy by Metric - guitar chords, guitar tabs and lyrics - chordie

Succexy

Metric

-------------------------------------------------------------------------------

-------------------------------------------------------------------------------

 F#GF#
     Lonesome for no one when
 F#GF#
     The room was empty and
 F#GF#
     War as we knew it was obsolete
 F#GAF#GF#
     Nothing could beat complete denial   
 F#GF#
All we do is talk, sit, switch screens
 GAF#
As the homeland plans enemies
 F#GF#
All we do is talk, static split screens
G A F# (F#) (Whammy/bend strings if on electric)
As the homeland plans enemies

At 14s this keyboard riff kicks in and continues until the chorus:
e|---------------------------------------------------------------------------|
B|---------4-5/4-2---6/5-2---4-2---2--------------0-5/4-2---6/5-2------------|
G|-------2---------4-------4-----4---4----------2---------4-------444--44----|
D|-----4-------------------------------4------4------------------------------|
A|---4-----------------------------------4--4--------------------------------|
E|---------------------------------------------------------------------------|


Chorus

Invasion's so succexxy....
e|---------------------------------------------------------------------------|
B|---------------------------------------------------------------------------|
G|---6-44----6-44---6-44---6-44---6-44---6-44---6-4----------x2--------------|
D|--------6------6------6------6-------6------6-----444-44-------------------|
A|---------------------------------------------------------------------------|
E|---------------------------------------------------------------------------|


 GF#
Let's drink to the military 
 GF#
The glass is empty  
 GF#
Faces to fill and cars to feed 
 GAF#GF#
Nothing could beat complete denial      
 GAF#
 F#GF#
All we do is talk, static split screens
 GAF#
As the homeland plans enemies

 F#GF#
All we do is talk, static split screens
 GAF#
As the homeland plans enemies

Invasion's so succexxy....
e|---------------------------------------------------------------------------|
B|---------------------------------------------------------------------------|
G|---6-44----6-44---6-44---6-44---6-44---6-44---6-4------------x4------------|
D|--------6------6------6------6-------6------6-----444-44-------------------|
A|---------------------------------------------------------------------------|
E|---------------------------------------------------------------------------|


Passive attraction, programmed reaction
Passive attraction, programmed reaction
Action distraction, more information
Flesh saturation, lips on a napkin
 Assassass
Bass fill
e|-------------------------------------------------------------------------------------------------------------------|
B|-------------------------------------------------------------------------------------------------------------------|
G|-------------------------------------------------------------------------------------------------------------------|
D|------------------------------------------------------------------------99-9----------------99-9-------------------|
A|--22--2/44-4/99-9-9-9----22--2/44-4/99-9-9-9----22-2/44-4/99-9-9-9----------77-7/99-9-9---------77-7/99-9-9--------|
E|-------------------------------------------------------------------------------------------------------------------|


Where does the time go?
We're waking up so slowly
Days are horizontal lately
Out of body, watched from above
Out of body, watched from above

This kicks in at 2:09
e|-----------------------|-----------------------------------------------|
B|-10-10----10-12-10-----|--7-7---9-9---10-10--10-12-10------------------|
G|-11-11-------------11--|--7-7---9-9---11-11-----------11-----x5--------|
D|-10-10-----------------|--7-7---9-9---10-10----------------------------|
A|-----------------------|-----------------------------------------------|
E|-----------------------|-----------------------------------------------|


Passive attraction, programmed reaction
More information, cash masturbation
Follow the pattern- the hemlines, the headlines
Action distraction,faster than fashion
Faster than fashion,faster than fashion

Then an occasional Metric trademark: finishing the song on the intro

 F#GF#
     Lonesome for no one when
 F#GF#
     The room was empty and
 F#GF#
     War as we knew it was obsolete
F# G B#m (strum slowly for full effect!)
Nothing could beat complete denial

Thats it, comments/suggestions welcome

| / slide up
| \ slide down
| h hammer-on
| p pull-off
| ~ vibrato
| + harmonic
| x Mute note
===============================================================================

END

+--------------------------------------------------------------------------+

| This file is the author's own work and represents their interpretation |
| of the song. You may only use this file for private study, scholarship, |
| or research. |
+--------------------------------------------------------------------------+


Ultimate-Guitar.Com © 2005


A F# G
variations - click chord images
Transpose chords:
Tuning:
Cool service:
View: Size:
A  A  A
Rating:
Layout:
  • Currently 0/5 Stars.
  • 1
  • 2
  • 3
  • 4
  • 5
 
Accuracy:
  • Currently 0/5 Stars.
  • 1
  • 2
  • 3
  • 4
  • 5
 
click stars to rate
Chordie recommends:
Check out these online guitar lessons
Songbook:
Login to add this song to your songbook
Support the artist
Preview/buy this song
MSN Music
Why this non-profit ad?

 
login to add comments/video/corrections