Videotape

Radiohead

 AC#mE
  e--5--4--4--2--5--4--4--2--5--4--4--2--|
  b--2--2--2--2--2--2--2--2--2--2--2--2--|
  g--2--2--2--2--2--2--2--2--2--2--2--2--|
  d--2--2--2--2--2--2--2--2--2--2--2--2--|
  a--0--0--0--0--4--4--4--4--------------|
  e--------------------------0--0--0--0--|


 AC#mEF#mG#mA
  e----------------------------------------|
  b----9----12----14-----16-----17-----19--|
  g----------------------------------------|
  d----6----9-----11-----13-----14-----16--|
  a----------------------------------------|
  e--5----9----12-----14-----16-----17-----|


 AG#mF#mEC#mA
  e----------------------------------------|
  b-----19-----17-----16-----14----12---9--|
  g----------------------------------------|
  d-----16-----14-----13-----11----9----6--|
  a----------------------------------------|
  e--17-----16-----14-----12-----9----5----|






































A C#m E F#m G#m
variations - click chord images
Transpose chords:
Tuning:
Cool service:
View: Size:
A  A  A
Rating:
Layout:
  • Currently 3/5 Stars.
  • 1
  • 2
  • 3
  • 4
  • 5
 
Accuracy:
  • Currently 5/5 Stars.
  • 1
  • 2
  • 3
  • 4
  • 5
 
click stars to rate
Chordie recommends:
Learn to play songs at Jamplay.com with video guitar lessons
Songbook:
Login to add this song to your songbook
Support the artist
Preview/buy this song
MSN Music
Why this non-profit ad?

 
login to add comments/video/corrections