Guitar Tabs, Chords and Lyrics


I Dont Love You   My Chemical Romance



| Ultimate Guitar Tabs Archive - your #1 source for tabs!               |
| http://www.ultimate-guitar.com/                                       |
|                                                                       |
| Over 200,000 guitar, guitar pro and bass tabs! Also lessons, news,    |
| columns and guitar forums!                                            |


Artist: My Chemical Romance
Song: I Dont Love You


Artist: My Chemical Romance
Bassist: Mikey Way
Song: I Don't Love You
Album: The Black Parade
Tabbed By: Lewis [lewis_mason21@hotmail.com]

I'm surprised no one tabbed this before, as it's unbelievably simple!  So here's I Don't Love You.

Key:
~: Let Note Ring

[Tuning: Standard - E,A,D,G]

Intro:
G|-------------REST-------------|
D|-------------REST-------------|
A|-------------REST-------------|
E|-------------REST-------------|

Preverse:
G|---------------------------------------------------------------------|
D|---------------------------------------------------------------------|
A|-3333333333333333----------------------------------------------------|
E|------------------5555555555555555-3333333333333333-1111111133333333-|

Verse One:
("Well when you go" ... "I'll be off to find another way")
G|---------------------------------------------------------------------|
D|---------------------------------------------------------------------|
A|-3333333333333333----------------------------------------------------|
E|------------------5555555555555555-3333333333333333-1111111133333333-|

Pre-Chorus:
("And after all this time" ... "Get out, while you can")
G|---------------------------------------------------------------------|
D|---------------------------------------------------------------------|
A|-3333333333333333-----------------------------------3333333333333333-|
E|------------------5555555555555555-3333333333333333------------------|

Chorus:
("When you go" ... "I don't love you, like I did, yesterday")
G|---------------------------------------------------------------------|
D|---------------------------------------------------------------------|
A|----------------------------------------------------3~---------------|
E|-1111111133334444-5555555511111111-1111111133333333------------------|

Verse Two:
("Sometimes I cry so hard" ... "It's where you oughta stay")
G|---------------------------------------------------------------------|
D|---------------------------------------------------------------------|
A|-3333333333333333----------------------------------------------------|
E|------------------5555555555555555-3333333333333333-1111111133333333-|

Pre-Chorus:
("And after all the blood" ... "Get up, while you can")
G|---------------------------------------------------------------------|
D|---------------------------------------------------------------------|
A|-3333333333333333-----------------------------------3333333333333333-|
E|------------------5555555555555555-3333333333333333------------------|

Chorus:
("When you go" ... "I don't love you, like I did, yesterday")


G|---------------------------------------------------------------------|
D|---------------------------------------------------------------------|
A|----------------------------------------------------3~---------------|
E|-1111111133334444-5555555511111111-1111111133333333------------------|

Solo:
G|---------------------------------------------------------------------|
D|---------------------------------------------------------------------|
A|------------------3-332220-------------------------------------------|
E|-5555555533333333---------55555555-3333333333333333-1111111133333333-|

Interlude:
("When you go" ... "I don't love you, like I loved you, yesterday")
G|-------------REST-------------|
D|-------------REST-------------|
A|-------------REST-------------|
E|-------------REST-------------|

Final Chorus: [x2]
[Note: Hold the ringing notes for four beats]
G|--------------------------------|
D|--------------------------------|
A|-3~-2~--------------------------|
E|------55553333-1111111133333333-|

End:
G|----|
D|----|
A|-3~-|
E|----|

END

+--------------------------------------------------------------------------+
| This file is the author's own work and represents their interpretation   |
| of the song. You may only use this file for private study, scholarship,  |
| or research.                                                             |
+--------------------------------------------------------------------------+



Important: The song above is NOT stored on the Chordie server. The original song is hosted at www.ultimate-guitar.com. Chordie works as a search engine and provides on-the-fly formatting. Chordie does not index songs against artists/composers will. To remove this song please click here.

This song is displayed as text-only. Transposing and tuning is only available for chordpro-songs.

Login - add to songbook

Rating click stars to rate

Layout
Accuracy

SHARE PAGE  




You need to log in to post comments