eToCache5 = ""; ?> Captivate Us by Watermark - guitar chords, guitar tabs and lyrics - chordie

Captivate Us

Watermark

 |-3-----------3------|-2------------2-----|-0---------------0--|--------------------|

|----3---------------|-----3--------------|-----3-------3------|-3-----------3------|
|----------0---------|----------2---------|----------0---------|-----4--------------|
|--------------------|--------------------|--------------------|---------5----------|
|--------------------|--------------------|--------------------|-5------------------|
|-3------------------|-2------------------|-0------------------|--------------------|
|--------------------|--------------------|
|-1-----------1------|-0-----------0------|
|-----0--------------|-0-------0------0---|
|---------3----------|-----0--------------|
|-3------------------|--------------------|
|--------------------|-3------------------|
|-3-----------3------|-2------------2-----|-0--------------0---|--------------------|
|----3---------------|-----3--------------|-----3-------3------|-3-----------3------|
|----------0---------|----------2---------|----------0---------|-----4--------------|
|--------------------|--------------------|--------------------|---------5----------|
|--------------------|--------------------|--------------------|-5------------------|
|-3------------------|-2------------------|-0------------------|--------------------|
|--------------------|--------------------|
|-1-----------1------|-0-----------0------|
|-----0--------------|-0-------0------0---|
|---------3----------|-----0--------------|
|-3------------------|--------------------|
|--------------------|-3------------------|

 GD/F#Em7Em7
 |--------------------|--------------------|--------------------|-0------------------|
 |---------3----------|----------3---------|----------3---------|-------3------------|
 |------0--------0----|------2--------2----|-------0------0-----|-----0---0---0------|
 |---0----------------|---0----------------|----2---------------|---2-------2--------|
 |--------------------|--------------------|--------------------|--------------------|
 |-3------------------|-2------------------|-0------------------|-0------------------|


C Em C (?) C
 |--------------------|--------------------|--------------------|--------------------|
 |----------1---------|-------0------------|---------1----------|--------------------|
 |-------0-------0----|-----0--------0-----|------0-------0-----|-----0--------0-----|
 |----2-------2----2--|---2-------2-----2--|----2-------2---2---|---4---4----2---2---|
 |-3------------------|-2------------------|-3------------------|-5--------3---------|
 |--------------------|--------------------|--------------------|--------------------|


 GD/F#Em7Em7
 |---------3----------|----------2---------|----------0---------|--------------------|
 |---------3----------|----------3---------|----------3---------|--------------------|
 |------0--------0----|------2---------2---|-------0--------0---|-----0---0---0------|
 |---0--------0----0--|---0----------0---0-|----2--------2----2-|---2---2---2--------|
 |--------------------|--------------------|--------------------|---------------2----|
 |-3------------------|-2------------------|-0------------------|-0------------------|


 CEmCDG

 |--------------------|--------------------|--------------2h3---|--------------------|
 |-------1------------|-------0------------|-------1------3-----|-------0-1-----1p0--|
 |-----0-------0------|-----0-------0------|-----0------2-------|-----0---0---0-0----|
 |---2-------2---2----|---2-------2---2----|---2------0---------|---0-------0--------|
 |-3------------------|-2------------------|-3------------------|--------------------|
 |--------------------|--------------------|--------------------|-3------------------|


CHORUS:
 CDEm7Em7
 |------------0-------|-------2------------|--------------------|----------0---------|
 |-------1------------|-----3------3-------|---------3----------|--------3---3-------|
 |-----0----------0---|---2------2---2-----|------0-------0-----|-----0--------0-----|
 |---2------2---2-----|-0------------------|---2--------2---2---|---2------------2---|
 |-3------------------|--------------------|-2------------------|--------------------|
 |--------------------|--------------------|--------------------|-0------------------|


 CDGEm
 |------------0-------|-------2------------|--------------------|--------------------|
 |-------1------------|-----3------3-------|------0-1---1p0-----|-------0------------|
 |-----0----------0---|---2------2---2-----|----0---0-0-0-----0-|-----0--------------|
 |---2-----2----2-----|-0------------------|--0------0------0---|---2----------------|
 |-3------------------|--------------------|--------------------|-2------------------|
 |--------------------|--------------------|-3------------------|--------------------|


 CDEm7Em7
 |------------0-------|-------2------------|--------------------|---------0------/0--|
 |-------1------------|-----3-------3------|---------3----------|-------3---3----\3--|
 |-----0----------0---|---2-------2---2----|------0-------0-----|-----0------0---/0--|
 |---2------2---2-----|-0------------------|---2--------2---2---|---2---------2--\2--|
 |-3------------------|--------------------|-2------------------|----------------/2--|
 |--------------------|--------------------|--------------------|-0--------------\2--|


 CD
 |------------0-------|-------2------------|
 |-------1------------|-----3------3-------|
 |-----0----------0---|---2------2---------|
 |---2-----2----2-----|-0------------------|
 |-3------------------|--------------------|
 |--------------------|--------------------|


G D/F# Em7 (Hold) (G?)
 |-3-----------3------|-2------------2-----|-0---------------0--|--------------------|
 |----3---------------|-----3--------------|-----3-------3------|-3-----------3------|
 |----------0---------|----------2---------|----------0---------|-----4--------------|
 |--------------------|--------------------|--------------------|---------5----------|
 |--------------------|--------------------|--------------------|-5------------------|
 |-3------------------|-2------------------|-0------------------|--------------------|


(Fm?) G
 |--------------------|--------------------|
 |-1-----------1------|-0-----------0------|
 |-----0--------------|-0-------0------0---|
 |---------3----------|-----0--------------|
 |-3------------------|--------------------|
 |--------------------|-3------------------|


VERSE 2:
 GD/F#Em7Em7
 |--------------------|--------------------|--------------------|--------------------|
 |---------3----------|----------3---------|----------3---------|-------3------------|
 |------0----0--------|------2-----2-------|-------0------0--0--|-----0-----0--------|
 |---0----------------|---0----------------|----2-----------2---|---2-----2---2------|
 |--------------------|--------------------|--------------------|--------------------|
 |-3------------------|-2------------------|-0------------------|-0------------------|


C Em C (?) C
 |--------------------|--------------------|--------------------|--------------------|
 |----------1---------|-------0------------|---------1----------|--------------------|
 |-------0-------0----|-----0--------0-----|------0-------0-----|-----0--------0-----|
 |----2-------2----2--|---2-------2-----2--|----2-------2---2---|---4---4----2---2---|
 |-3------------------|-2------------------|-3------------------|-5--------3---------|
 |--------------------|--------------------|--------------------|--------------------|


 GD/F#Em7Em7
 |---------3----------|----------2---------|----------0---------|------------0-------|
 |---------3----------|----------3---------|----------3---------|-------3------------|
 |------0--------0----|------2---------2---|-------0--------0---|-----0--------------|
 |---0--------0----0--|---0----------0---0-|----2--------2----2-|---2------2----2----|
 |--------------------|--------------------|--------------------|--------------------|
 |-3------------------|-2------------------|-0------------------|-0------------------|


 CEmCDG
 |--------------------|--------------------|--------------2h3---|--------------------|
 |-------1------------|-------0------------|-------1------3-----|-------0-1-----1p0--|
 |-----0-------0------|-----0-------0------|-----0------2-------|-----0---0---0-0----|
 |---2-------2---2----|---2-------2---2----|---2------0---------|---0-------0--------|
 |-3------------------|-2------------------|-3------------------|--------------------|
 |--------------------|--------------------|--------------------|-3------------------|


CHORUS:
 CDEm7Em7
 |------------0-------|-------2------------|--------------------|----------0---------|
 |-------1------------|-----3------3-------|---------3----------|--------3---3-------|
 |-----0----------0---|---2------2---2-----|------0-------0-----|-----0--------0-----|
 |---2------2---2-----|-0------------------|---2--------2---2---|---2------------2---|
 |-3------------------|--------------------|-2------------------|--------------------|
 |--------------------|--------------------|--------------------|-0------------------|


 CDGEm
 |------------0-------|-------2------------|--------------------|--------------------|
 |-------1------------|-----3------3-------|------0-1---1p0-----|-------0------------|
 |-----0----------0---|---2------2---2-----|----0---0-0-0-----0-|-----0--------------|
 |---2-----2----2-----|-0------------------|--0------0------0---|---2----------------|
 |-3------------------|--------------------|--------------------|-2------------------|
 |--------------------|--------------------|-3------------------|--------------------|


 CDEm7
 |------------0-------|-------2------------|--------------------|---------0------/0--|
 |-------1------------|-----3-----3--------|---------3----------|-------3---3----\3--|
 |-----0----------0---|---2-----2---2------|------0-------0-----|-----0------0---/0--|
 |---2------2---2-----|-0------------------|---2--------2---2---|---2---------2--\2--|
 |-3------------------|--------------------|-2------------------|----------------/2--|
 |--------------------|--------------------|--------------------|-0--------------\0--|


 CDGEm
 |------------0-------|-------2------------|--------------------|--------------------|
 |-------1------------|-----3------3-------|------0-1---1p0-----|-------0------------|
 |-----0----------0---|---2------2---2-----|----0---0-0-0-----0-|-----0--------------|
 |---2-----2----2-----|-0------------------|--0------0------0---|---2----------------|
 |-3------------------|--------------------|--------------------|-2------------------|
 |--------------------|--------------------|-3------------------|--------------------|


BRIDGE:
 CDEm7G
 |------------0-------|-------2------------|--------------------|---------3----------|
 |-------1------------|-----3-----3--------|--------------------|-------3---3--------|
 |-----0-----------0--|---2-----2---2------|-----0--------0-----|-----0-------0------|
 |---2-----2----2-----|-0------------------|---2---2----2---2---|---0-----------0----|
 |-3------------------|--------------------|-2--------0---------|--------------------|
 |--------------------|--------------------|--------------------|-3------------------|


 CDEm7G
 |------------0-------|-------2------------|--------------------|---------3----------|
 |-------1------------|-----3-----3--------|--------------------|-------3---3--------|
 |-----0-----------0--|---2-----2---2------|-----0--------0-----|-----0-------0------|
 |---2-----2----2-----|-0------------------|---2---2----2---2---|---0-----------0----|
 |-3------------------|--------------------|-2--------0---------|--------------------|
 |--------------------|--------------------|--------------------|-3------------------|


 CDGD/F#Em7
 |------------0-------|-------2------------|-----3--------2-----|-------0------------|
 |-------1------------|-----3-----3--------|-----3--------3-----|-------3------------|
 |-----0-----------0--|---2-----2---2------|-----0--------2-----|-----0--------------|
 |---2-----2----2-----|-0------------------|---0---0----0---0---|---2----------------|
 |-3------------------|--------------------|--------------------|--------------------|
 |--------------------|--------------------|-3--------2---------|-0------------------|


 CD
 |--------------------|--------------------|
 |----1---1---1-------|-1----0---0-1----0--|
 |---0---0---0----0---|-0--0-0--0--0--0-0--|
 |--2---2---2---2---2-|---0----0-----0-----|
 |-3------------------|--------------------|
 |--------------------|--------------------|


CHORUS:
 CDEm7Em7
 |--------------------|-------2------------|--------------------|----------0---------|
 |-------1------------|-----3--------------|---------3----------|--------3-----------|
 |-----0--------------|---2------2---------|------0-------------|-----0--------------|
 |---2----------------|-0------------------|---2--------2-------|---2----------------|
 |-3------------------|--------------------|-2------------------|--------------------|
 |--------------------|--------------------|--------------------|-0------------------|


 CDGEm
 |------------0-------|-------2------------|--------------------|--------------------|
 |-------1------------|-----3------3-------|------0-1---1p0-----|-------0------------|
 |-----0----------0---|---2------2---2-----|----0---0-0-0-----0-|-----0--------------|
 |---2-----2----2-----|-0------------------|--0------0------0---|---2----------------|
 |-3------------------|--------------------|--------------------|-2------------------|
 |--------------------|--------------------|-3------------------|--------------------|


 CDEm7
 |------------0-------|-------2------------|--------------------|---------0------/0--|
 |-------1------------|-----3-----3--------|---------3----------|-------3---3----\3--|
 |-----0----------0---|---2-----2---2------|------0-------0-----|-----0------0---/0--|
 |---2------2---2-----|-0------------------|---2--------2---2---|---2---------2--\2--|
 |-3------------------|--------------------|-2------------------|----------------/2--|
 |--------------------|--------------------|--------------------|-0--------------\2--|


 CDCEm
 |------------0-------|-------2------------|--------------------|--------------------|
 |-------1------------|-----3------3-------|-------3------------|-------3------------|
 |-----0----------0---|---2------2---2-----|-----0-----0--------|-----0-----0--------|
 |---2-----2----2-----|-0------------------|---2-----2---2------|---2-----2---2------|
 |-3------------------|--------------------|-3------------------|-2------------------|
 |--------------------|--------------------|--------------------|--------------------|


 CDCEm
 |------------0-------|-------2------------|-------3------------|-------3------------|
 |-------1------------|-----3------3-------|-------3------------|-------3------------|
 |-----0----------0---|---2------2---2-----|-----0-----0--------|-----0-----0--------|
 |---2-----2----2-----|-0------------------|---2-----2---2------|---2-----2---2------|
 |-3------------------|--------------------|-3------------------|-2------------------|
 |--------------------|--------------------|--------------------|--------------------|


 CD
 |------------0-------|-------2--------/3--|
 |-------1------------|-----3------3---\3--|
 |-----0----------0---|---2------2---2-/2--|
 |---2-----2----2-----|-0--------------\0--|
 |-3------------------|--------------------|
 |--------------------|--------------------|


END:
G D/F# Em7 (Hold) (G?)
 |-3-----------3------|-2------------2-----|-0---------------0--|--------------------|
 |----3---------------|-----3--------------|-----3-------3------|-3-----------3------|
 |----------0---------|----------2---------|----------0---------|-----4--------------|
 |--------------------|--------------------|--------------------|---------5----------|
 |--------------------|--------------------|--------------------|-5------------------|
 |-3------------------|-2------------------|-0------------------|--------------------|


(Fm?) G

 |--------------------|--------------------|
 |-1-----------1------|-0-----------0------|
 |-----0--------------|-0-------0------0---|
 |---------3----------|-----0--------------|
 |-3------------------|--------------------|
 |--------------------|-3------------------|


G D/F# Em7 (Hold) (G?)
 |-3-----------3------|-2------------2-----|-0--------------0---|--------------------|
 |----3---------------|-----3--------------|-----3-------3------|-3-----------3------|
 |----------0---------|----------2---------|----------0---------|-----4--------------|
 |--------------------|--------------------|--------------------|---------5----------|
 |--------------------|--------------------|--------------------|-5------------------|
 |-3------------------|-2------------------|-0------------------|--------------------|


(Fm?) G
 |--------------------|--------------------|
 |-1-----------1------|-0-----------0------|
 |-----0--------------|-0-------0------0---|
 |---------3----------|-----0--------------|
 |-3------------------|--------------------|
 |--------------------|-3------------------|


END

+--------------------------------------------------------------------------+

| This file is the author's own work and represents their interpretation |
| of the song. You may only use this file for private study, scholarship, |
| or research. |
+--------------------------------------------------------------------------+


Ultimate-Guitar.Com © 2005


C D D/F# Em Em7 G
variations - click chord images
Transpose chords:
Tuning:
Cool service:
View: Size:
A  A  A
Rating:
Layout:
  • Currently 0/5 Stars.
  • 1
  • 2
  • 3
  • 4
  • 5
 
Accuracy:
  • Currently 0/5 Stars.
  • 1
  • 2
  • 3
  • 4
  • 5
 
click stars to rate
Chordie recommends:
Check out JamPlay.com for online video guitar lessons
Songbook:
Login to add this song to your songbook
Support the artist
Preview/buy this song
MSN Music
Why this non-profit ad?

 
login to add comments/video/corrections