"yes"; ?> Cherish by Kool and The Gang - guitar chords, guitar tabs and lyrics - chordie
 AmF
e|-9----8----9----8----9----8-----9-8-------|------------------------------|
B|------------------------------------11-9--|-11----9----11----9----11----9|
G|---10---10---10---10---10---10------------|------------------------------|
D|------------------------------------------|----11---11----11---11----11--|
A|------------------------------------------|------------------------------|
E|------------------------------------------|------------------------------|


 Dm7FG
e|--------------|-----------------------------------------------------|
B|--11-9--------|-----------------------------------------------------|
G|-------11-10--|--11----10----11----10-----11----10------------------|
D|--------------|-----11----11----11----11-----11----11---11-10-8-6-8-|
A|--------------|-----------------------------------------------------|
E|--------------|-----------------------------------------------------|


Verse I

 AmF
  Let's take a walk together near the ocean shore, hand in hand you and I
 AmF
  Let's cherish every moment, we have been given the time is passing by
 CG
   I often pray before I lay down by your side

 Am
  If you receive your calling before I awake
 FG
  Could I make it through the night

Chorus:

 AmAmCDm7
  Cherish the love we have, we should cherish the life we live
 EmE
  Cherish the love, cherish the life, cherish the love   

 AmAmCDm7
  Cherish the love we have, for as long as we both shall live
 AmE
  Cherish the love, cherish the life, cherish the love   

Sax solo with chords…

 AmF

e|----------------------------------------------------------------------|
B|-----------------------------------------------9-11-9-----------------|
G|------------------------------------------------------10--------------|
D|--8--11-11-10-11/13-11-11-—10h11-11-11-10-11-------------13-11-8-(8)--|
A|----------------------------------------------------------------------|
E|----------------------------------------------------------------------|


 AmF
e|------------------------------------------------------------|
B|------------------------------------------------------------|
G|------------------------------13/10-------------------------|
D|--8--11-11-10-11/13-11-11--11---------8-11-11-10-8----------|
A|---------------------------------------------------11/13-9--|
E|------------------------------------------------------------|


 CGAmF
e|--6-8-9-6—-6-6-6/8-8-6-4h6-4/2---6-9-9-9-8-11-9-9--8h9-9-9-8-6--|
B|----------------------------------------------------------------|
G|----------------------------------------------------------------|
D|----------------------------------------------------------------|
A-----------------------------------------------------------------|
E|----------------------------------------------------------------|


 G
e|--6-8-9-11-13-14-11--11-9-13-11-11/9--|
B|--------------------------------------|
G|--------------------------------------|
D|--------------------------------------|
A---------------------------------------|
E|--------------------------------------|


 AmAmCDm7
  Cherish the love we have, we should cherish the life we live
 EmE
  Cherish the love, cherish the life, cherish the love   

 AmAmCDm7
  Cherish the love we have, for as long as we both shall live
 AmE
  Cherish the love, cherish the life, cherish the love   

Verse II

 Am
  The world is always changing nothing stays the same
 FAm
  But love will stand the test of time, the next life that we live in
 F
  Remains to be seen, will you be by my side?
 CG
   I often pray before I lay down by your side

 Am
  And If you receive your calling before I awake
 FG
  Could I make it through the night

Chorus

 AmAmCDm7
  Cherish the love we have, we should cherish the life we live
 EmE
  Cherish the love, cherish the life, cherish the love   

 AmAmCDm7
  Cherish the love we have, for as long as we both shall live
 AmE
  Cherish the love, cherish the life, cherish the love   

 AmF
e|-9----8----9----8----9----8-----9-8-------|------------------------------|
B|------------------------------------11-9--|-11----9----11----9----11----9|
G|---10---10---10---10---10---10------------|------------------------------|
D|------------------------------------------|----11---11----11---11----11--|
A|------------------------------------------|------------------------------|
E|------------------------------------------|------------------------------|


 Dm7FG
e|--------------|-----------------------------------------------------|
B|--11-9--------|-----------------------------------------------------|
G|-------11-10--|--11----10----11----10-----11----10------------------|
D|--------------|-----11----11----11----11-----11----11---11-10-8-6-8-|
A|--------------|-----------------------------------------------------|
E|--------------|-----------------------------------------------------|

Cherish the love, Cherish the love...

 AmAmCDm7
  Cherish the love we have, we should cherish the life we live
 EmE
  Cherish the love, cherish the life, cherish the love   

 AmAmCDm7
  Cherish the love we have, for as long as we both shall live
 AmE
  Cherish the love, cherish the life, cherish the love   
(Yes I do) (Oh this love¡¡¡)

 AmAmCDm7
  Cherish the love we have, we should cherish the life we live
(Let's cherish every moment we have been given)
 EmE
  Cherish the love, cherish the life, cherish the love...
(Hand in hand you and I)

Hi, everybody it's me again... Adrián González Jimenez & this my 5th tab; it's very,
good believe me¡. This is a great song by this band...

"Every day, I remeber every moment than I've had of love,
but always it hurts, because every memory than I've saved,
now it's pain. Jus that" Adrián.

END

+--------------------------------------------------------------------------+

| This file is the author's own work and represents their interpretation |
| of the song. You may only use this file for private study, scholarship, |
| or research. |
+--------------------------------------------------------------------------+


Ultimate-Guitar.Com © 2005


Am C Dm7 E Em F G
variations - click chord images
Transpose chords:
Tuning:
Cool service:
View: Size:
A  A  A
Rating:
Layout:
  • Currently 0/5 Stars.
  • 1
  • 2
  • 3
  • 4
  • 5
 
Accuracy:
  • Currently 0/5 Stars.
  • 1
  • 2
  • 3
  • 4
  • 5
 
click stars to rate
Chordie recommends:
Get acoustic guitar lessons and electric guitar lessons at JamPlay.com
Songbook:
Login to add this song to your songbook
Support the artist
Preview/buy this song
MSN Music
Why this non-profit ad?

 
login to add comments/video/corrections