"yes"; ?> No Touch by Rocksteddy - guitar chords, guitar tabs and lyrics - chordie

No Touch

Rocksteddy

e--------------------------|

B--------------------------|
G--------------------------| 2x
D------------5-------------|
A---------5-7--7-5--5h7p5--|
E-3-3--5-7-----------------|

 C
e-------------------------|
B-------------------------|
G----------5--------------|
D-------57---7-5---5h7p5--|
A-3-3-57------------------|
E-------------------------|


 G
e----------------------------|
B----------------------------|
G----------------------------|
D------------5---------------|
A---------57--7-5--5h7p5-----|
E--3-3-5-7-------------------|


Verse:

e--------------------------|
B--------------------------|
G--------------------------| 2x
D------------5-------------|
A---------5-7--7-5--5h7p5--|
E-3-3--5-7-----------------|


 C
e-------------------------|
B-------------------------|
G----------5--------------|
D-------57---7-5---5h7p5--|
A-3-3-57------------------|
E-------------------------|


 G
e-------------------------|
B-------------------------|
G-------------------------|
D------------5------------|
A---------57--7-5--5h7p5--|
E--3-3-5-7----------------|


 G
 Dead na dead talaga ako
 G

sa mga pakembot-kembot mO
 C
 kapag ikaw ay ngumingiti
 G
 ako'y medyo nakikiliti

Refrain:
 CACACDCAG
e------------------------------------------------|
B------------------------------------------------|
G--5----2----5----2----5----7----5-2-------------|
D--5-4x-2-4x-5-4x-2-4x-5-4x-7-2x-5-2-7-----------|
A--3----2----3----2----3----5----3-2-7-----------|
E------------------------------------5-----------|


 CA
 Kailangan ko ang iyong labi
 CA
 kailangan ko ang iyong pisngi
 CDCAG
 kailan kaya kitmaiuuwi

 G
 sige na sige na
 G
 sige na sige na

 G
e--------------------------|
B--------------------------|
G--------------------------| 2x
D------------5-------------|
A---------5-7--7-5--5h7p5--|
E-3-3--5-7-----------------|


Chorus:

 EmD
 Pahipo naman (No touch)
 EmD
 pahawak naman (No touch)
 EmD
 di na kita matsansingan

My first tab of no touch ay di tinanggap ewan ko kung bakit.?

END

+--------------------------------------------------------------------------+

| This file is the author's own work and represents their interpretation |
| of the song. You may only use this file for private study, scholarship, |
| or research. |
+--------------------------------------------------------------------------+


Ultimate-Guitar.Com © 2005


A C D Em G
variations - click chord images
Transpose chords:
Tuning:
Cool service:
View: Size:
A  A  A
Rating:
Layout:
  • Currently 0/5 Stars.
  • 1
  • 2
  • 3
  • 4
  • 5
 
Accuracy:
  • Currently 0/5 Stars.
  • 1
  • 2
  • 3
  • 4
  • 5
 
click stars to rate
Chordie recommends:
Learn how to play guitar at JamPlay.com
Songbook:
Login to add this song to your songbook
Support the artist
Preview/buy this song
MSN Music
Why this non-profit ad?

 
login to add comments/video/corrections