Chordie logo

Disco Inferno   Tramps



| Ultimate Guitar Tabs Archive - your #1 source for tabs!               |
| http://www.ultimate-guitar.com/                                       |
|                                                                       |
| Over 200,000 guitar, guitar pro and bass tabs! Also lessons, news,    |
| columns and guitar forums!                                            |


Artist: Tramps
Song: Disco Inferno


The Trammps - Disco Inferno
Standard Tuning: EADG
Tabbey By: RTBM

Intro
G|-88-66-44------------|
D|---------66-33-6-4---|
A|------------------6--|
E|---------------------|

Verse Part: Loop
G|----------------------------------2-3---|
D|---5--1-3---5--1-1-3---5--1-3-----------|
A|-33-3-----33-3-------33-3----1-330-1-2--|
E|----------------------------------------|

Chorus
G|------------------------------2-3---------------------------------32--|
D|-332------------------------------33----------------------------------|
A|----55-3-11-0--1-3-----0-1-330-1-2--2-55-3-11-0--1-3-33333-13-3333----|
E|-------------33---0h1-3------------------------33---------------------|

Bridge
G|----/10--------------------------555-222---------------------|
D|--------------------3-------2-5---------555----3---------3---|
A|-1-1--------8-1-1-55--333-55----3----------1-55--1-3-1-55-3--|
E|-------10,10-------------------------------------------------|

Break
G|------------------------|
D|-55-3-------55-3--------|
A|-----66-5-3-----66-5-3--|
E|------------------------|



END

+--------------------------------------------------------------------------+
| This file is the author's own work and represents their interpretation   |
| of the song. You may only use this file for private study, scholarship,  |
| or research.                                                             |
+--------------------------------------------------------------------------+



Important: The song above is NOT stored on the Chordie server. The original song is hosted at www.ultimate-guitar.com. Chordie works as a search engine and provides on-the-fly formatting. Chordie does not index songs against artists/composers will. To remove this song please click here.

This song is displayed as text-only. Transposing and tuning is only available for chordpro-songs.

Login - add to songbook

Rating click stars to rate

Layout
Accuracy

SHARE PAGE  

You need to log in to post comments